Ese Hombre, Los Voceros De Cristo (tablatura)

Autor: Anónimo | 40406 visualizaciones



lA tAblatUra apArecE cOn nUmeroS eN lA aFinAciOn
pArA eviTar ConfUsiOnes
6= cUerdA maS gRandE
1= cUerdA mAss PequEñA

El canto esta en F#
Así coloquen el capo de manera que al tocar
un "C" les suene un F# (en la guitarra es el
6to. traste)

LA tablatura cuenta a partir del capo...::::))

Intro:


      C#7                             F#
6-|-------------------------------------------------|
5-|-------------------------------------------------|
4-|-------------------------------------------------|
3-|-0--2--4--0-----------0------4------0------------|
2-|-0--1--3--0--6--5--3-----1---3---1----5--3--6--5-|
1-|-------------5--3--1-----0-------0----3--1--5--3-|

       C#7                                   F#
6-|------------------------------------------------------|
5-|---9--7--5--3--2--0--3--2--3--------------------------|
4-|------------------------------0--2--3--2--2--1---1/2--|
3-|------------------------------------------------------|
2-|------------------------3-----------------------------|
1-|--10--8--7--5--3--1--0-----0--1--3--5--3--3--2---2/3--|

      C#7                             F#
6-|-------------------------------------------------|
5-|-------------------------------------------------|
4-|-------------------------------------------------|
3-|-0--2--4--0-----------0------4------0------------|
2-|-0--1--3--0--6--5--3-----1---3---1----5--3--6--5-|
1-|-------------5--3--1-----0-------0----3--1--5--3-|

    C#7                       F#
6-|---------------------3--1--0------------|
5-|--9--7--5--3--2--0----------------------|
4-|-----------------------------2----------|
3-|-------------------------------0--------|
2-|------------------------3--1-----1-1----|
1-|-10--8--7--5--3--1---0-------------0----|

     F#
Una cruz levantada yo vi
       C#                  F#
con un hombre pendiendo de sí
               F#7    B
que moría más era por mí
      F#        C#     F#
para darme una vida feliz.


CORO:
     C#              F#
Ese hombre se llama Jesús
       C#                F#
Y es el hijo bendito de Dios
       F#7              B
que moría por darme la luz
       F#          C#       F#
de un glorioso y eterno perdón.


(Intro)

     F#
Hoy mi alma rebosa de amor
     C#                      F#
y alegría sin par por quién dió
             F#7        B
su santisima sangre y murió
     F#      C#         F#
por salvarme de condenación.


CORO:
     C#              F#
Ese hombre se llama Jesús
       C#                F#
Y es el hijo bendito de Dios
       F#7              B
que moría por darme la luz
       F#          C#       F#
de un glorioso y eterno perdón.

Final:

6-|----------------------|
5-|-3--------------------|
4-|---2--------------7---|
3-|-0---------7------7---|
2-|-1---1--3--7------7---|
1-|-----0--3--10-----10--|


BUeno este es todo el canto

Espero les sirva...........

Cualquier duda no duden een escribirme
marvillagran@hotmail.es

DIOS LES BENDIGA!!!!!

BENDICIONES PARA WATEMALA!!!!!!!





Calificar esta versión:
Aviso: Este fichero es trabajo propio de su transcriptor y representa su interpretación personal de la canción. El material contenido en esta página es para exclusivo uso privado, por lo que se prohibe su reproducción o retransmisión, así como su uso para fines comerciales.