Siempre Solo, Los Visconti (tablatura)

Autor: Anónimo | 44828 visualizaciones



------------------------------------------6
------------------------------------------5
------------------------------------------4
--7------7--------------------------------3
---5-6-5----8-8---7-8-7-8---9-11----------2
------------6-6---5-6-5-6---8-10----------1
            SOLm            SIb
------------------------------------------6
------------------------------------------5
------------------------------------------4
------------------------------------------3
-11-11-11--11-11-11--11-11-11-11--9-6-----2
-13-10-----10-13-10--10-13-10-10--8-5-----1
                                  FA 
------------------------------------------6
------------------------------------------5
------------------------------------------4
------------------------------------------3
--5-6-8-6-5---------5-6-8-6-5-------------2
------------5-5---------------5-5---------1
            LA7               RE
------------------------------------------6
------------------------------------------5
-----------------------------------3-0----4
---------------------------------2---2----3
--3-5-6-5-3--6-6----6-5-5--6-5-3-----3----2
-------------------------------------1----1
            FA         LA7           RE


Bajo para cambio de FA a LA7.
-1-2-3-------------6
-------0-----------5
-------------------4
-------------------3
-------------------2
-------------------1
Para la cancion se toca a ritmo de vals;
para ayudarte escucha la canciòn, 
asi lograras sacar màs ràpido
el tab.Espero que les guste.

                 
                  Siempre solo
                 (Los visconti)
RE          LA7        LA7
Sé que  mi pena no te importa,
FA             DO           FA
Se que de mi llanto tu te burlas,
SIb                    FA
Se que para ti no valgo nada,
       LA7                      RE        
que no soy mas que un triste bohemio,
SIb                      FA
Se que para ti no valgo nada,
        LA7                     RE
que no soy mas que un triste bohemio.

 FA                   DO          FA  
Por eso quieres apartarme de tu lado,
          SIb          FA
Sin importarte alma de mi,
            SIb                    FA      
es mi destino seguir siempre muy solo,
         LA7                  RE
y no te culpo quizás tengas razón,
          SIb                     FA
es mi destino seguir siempre muy solo,
         LA7                  RE
y no te culpo quizás tengas razón.
                SOLm 
/Plazo doy a la vida, para que tu regreses,
             SIb               FA 
Para que tu vuelvas como te conocí,
           LA7                 RE
Y en un sollozo,  de triste llanto,
          FA      LA7      RE
me des un beso,  por mi perdón./
(Se repite toda la canciòn.)
Para Debbie A. con mucho cariño .TQM
Att:Francisco G.





Calificar esta versión:
Aviso: Este fichero es trabajo propio de su transcriptor y representa su interpretación personal de la canción. El material contenido en esta página es para exclusivo uso privado, por lo que se prohibe su reproducción o retransmisión, así como su uso para fines comerciales.