La Espada & La Pared, Los Tres (bajo)

Autor: Anónimo | 21468 visualizaciones

kius este es mi primer tab pero ta recomendado por mi banda
asi q ta weno, disfrutenlo

 intro:
|-----|-----|
|-----|-----|   x2
|-----|-----|
|--0--|--0--|
|-----------------------|
|--------7-7------------|   x4
|--7-5-5--5-5-7-5-5--56-|
|-----7----------7-77---|

verso 1:
|-----------------|
|-----------------|   x4
|-7---5-6-7-------|
|---7-------7-6-7-|

|-----------------------|
|--------7-7------------|   x2
|--7-5-5--5-5-7-5-5--56-|
|-----7----------7-77---|

verso 2:
|-----------------|
|-----------------|   x4
|-7---5-6-7-------|
|---7-------7-6-7-|

interludio:
|-------------|
|-------------|
|-------------|
|5-5-5-88-7-6-|   x4

|-----------------------|
|--------7-7------------|   x2
|--7-5-5--5-5-7-5-5--56-|
|-----7----------7-77---|

verso 3:
|-----------------|
|-----------------|   x8
|-7---5-6-7-------|
|---7-------7-6-7-|

interludio:
|-------------|
|-------------|
|-------------|
|5-5-5-88-7-6-|   x6

precoro:
|----------------|
|----------------|
|----------------|
|--3---5---7-----|

coro:
|--------------------------------------------|
|-------4-4----------------------------------|
|-5-5-5-----2-2-2-5-5-------3-3-2-2-2-0-2-4--| x3
|---------------------3-3-3------------------|

esa es la estructura general y el solo es ese
|-----------------------|
|--------7-7------------|
|--7-5-5--5-5-7-5-5--56-|   x3
|-----7----------7-77---|

|----------------------------------------|
|----------------------------------------|
|----------------------------------------|
|-5---5---5----5----7-----9--------------|

y el coro.


aprobechenla por que toy completamente seguro que asi es
porq la saque con subwoffer y  eso
un saluo pa toos los musicos de conce y las personas que
conosco y quiero
xao.l
Calificar esta versión:
Aviso: Este fichero es trabajo propio de su transcriptor y representa su interpretación personal de la canción. El material contenido en esta página es para exclusivo uso privado, por lo que se prohibe su reproducción o retransmisión, así como su uso para fines comerciales.