Hagalo Usted Mismo, Los Tres (acordes)

Autor: zuneo | 37365 visualizaciones

fasoslamiresisimsol
 Intro*: x 4
E||--------------------------------------
B||------------------------5--6--5-------
G||----7--x---7--x---7------------7--5---
D||----7--x---7--x---7-------------------
A||----5--x---5--x---5-------------------
E||--------------------------------------

E||--------------------------------------
B||--------------------------------------
G||----7--x---7--x---7---------5--6--5---
D||----7--x---7--x---7---5--7------------
A||----5--x---5--x---5-------------------
E||--------------------------------------


A.
Re       Sol        Re    Sol     Re
Un día en un pueblo polvoriento
Sol               Re
Dios se apareció
Re  Sol   Re    Sol        Re
Andaba solo y de vacaciones
Sol       Re    Sol      Re
Muy tostado por el Sol 

A.
Yo iba con mi caballo
Cansado y sucio arrancando de una mujer

Punteo sobre la 5ta cuerda*: 5-4-3-[2]

B.
Sim       Mi    *
Escúchame Señor
Sim       Mi    *
Tengo una mujer
Sim              Mi  *
Que ya no quiero ver
Sim
Que la parta un rayo
       Mi      Fa#
Que la mate un tren
Y me dijo…

C.
Si      La    Mi   La    Si [Si La Mi La Si]
Hágalo usted mismo y ya verá
Si       La     Mi    La     Si 
Que  con tanto llanto se reirá
Si       La      Mi      La     Si 
La vida es muy corta y hay que matar
Si    La     Mi     La       Si 
Un poco a la muerte y resucitar


E||--------------------------------------
B||--------------------------------------
G||--------------------------------------
D||----------5/3-3------5-5--3-3--------- X 2 *Re
A||---*-5-5-5------*-5-5-5-----------------
E||--------------------------------------

A.
Partí con dos cuchillos
A triturarla y terminar mí mal
Llegué y no había nadie
Se había ido con otro animal
B.
Al no verla lloré
Su amor era bueno y fiel
Qué puedo hacer Señor
Que me trague la tierra
Que me lleve el dolor
Y me dijo…
C.
Hágalo usted mismo y ya verá
Que  con tanto llanto ser reirá
Para hacer milagros hay que pagar
Solamente es gratis morir y amar

Hágalo usted mismo y ya verá
Para hacer milagros hay que pagar
Solamente es gratis morir y amar
Solamente es gratis morir y amar

 
Calificar esta versión:
Aviso: Este fichero es trabajo propio de su transcriptor y representa su interpretación personal de la canción. El material contenido en esta página es para exclusivo uso privado, por lo que se prohibe su reproducción o retransmisión, así como su uso para fines comerciales.