De Hacerse Se Va A Hacer, Los Tres (acordes)

Autor: Anónimo | 42282 visualizaciones

domremsolm
Intro

Esto es lo que toca Ángel [guitarra]
e-------------------------------------------
b-------------------------------------------
g---0--------0---------0---------0-0-5-0----
d-----3-0------3--0------3-0----------------
a---------1---------3-----------------------
e-3--------------------------3--------------

Y esto toca Titae [bajo]
e--------------------------------------------
b--------------------------------------------
g-------------------5------------------------
d-5------------------------------------------
a-5-----------5-3--------3-5-3---------------
e-3-------5-6----------6--------6-5-3--------




Solm Rem De hacerse, se va a hacer Dom Solm La corona corona de espinas Rem De caerse se va a caer Dom Solm El planeta es ceremonia Rem Dom Silencio en las bancas Rem Dom las formas trabajan Rem Dom abiertas las pupilas Sib Rem Un cielo que remata Solm Rem De verse, se van a ver Dom Solm tormenta en las pestañas Rem vueltas siniestras Dom Sib al anochecer Intro x 2 Rem Dom Saludo de baratas Rem Dom informe en planta baja Rem Dom difícil preparar Sib Rem una dieta en el alma Solm Rem De hacerse, se va a hacer Dom Solm una cúspide en las sombras Rem De subirse se va a subir Dom Solm escamas en la estrofa Intro x 2 Sib Solm u u uuuuuuuuuu u Reiteradas veces hasta el final. “ Ta super facil y suena parecido... eso si les aconsejo que toquen los acordes en 8tavas superiores... en todo caso no se preocupen”
Calificar esta versión:
Aviso: Este fichero es trabajo propio de su transcriptor y representa su interpretación personal de la canción. El material contenido en esta página es para exclusivo uso privado, por lo que se prohibe su reproducción o retransmisión, así como su uso para fines comerciales.