Gangster, Los Tetas (tablatura)

Autor: Anónimo | 31114 visualizaciones

Por: Vicente Ortiz
Wena kauros aki les hice la tab de gangster ete tema la llea con cuatika
si les gusto eta tab con gusto les hago mas.

HAY PARTES KE TAN MEDIAS MULEAS... jajaja

Este tema C Funk afina la 6ta cuerda en RE

intro

---------------------------
---------------------------
---------------------------
-0-0-0-5-5-6-6-7--x-x------
-0-0-0-5-5-6-6-7--x-x-3h5~-
-0-0-0-5-5-6-6-7~-x-x------

La ultima vez

--------------------
--------------------
--------------------
-0-0-5-5-6-6-7-7----
-0-0-5-5-6-6-7-7-5~-
-0-0-5-5-6-6-7-7----

Aqui empieza a cantar Tea time

----------------------------------------------------------------------
----------------------------------------------------------------9-----
----------------------------------------------------------------11b13-
-0--0-0-0-----3~-0--0-0-0------3--------0--0-0-0-----3-0--0-0-0-------
-0--0-0-0-3h5----0--0-0-0--3h5----5-3-0-0--0-0-0-3h5---0--0-0-0-------
-0--0-0-0--------0--0-0-0---------------0--0-0-0-------0--0-0-0-------

Aqui se pone ma vacilona la wea
Aqui no se ksha mucho entre rasgueo y la 2da guitarra de wa...

       (12)
-------x-x----------x-x-12-----------x-x----------x-x----------
-------x-x----------x-x----12--------x-x----------x-x----------
-------x-x-12-10-11-x-x--------------x-x-12-10-11-x-x-12b13-10-
-10h12------------------------10h12----------------------------
---------------------------------------------------------------
---------------------------------------------------------------

       (12)
-------x-x----------x-x-12-----------x-x-------------------------------
-------x-x----------x-x----12--------x-x-------------------------------
-------x-x-12-10-11-x-x--------------x-x-12-10-11-----12b13-12-10------
-10h12------------------------10h12--------------------------------12--
-----------------------------------------------------------------------
-----------------------------------------------------------------------

       (12)
-------x-x----------x-x-12-----------x-x----------x-x----------
-------x-x----------x-x----12--------x-x----------x-x----------
-------x-x-12-10-11-x-x--------------x-x-12-10-11-x-x-12b13-10-
-10h12------------------------10h12----------------------------
---------------------------------------------------------------
---------------------------------------------------------------

       (12)
-------x-x----------x-x-12-----------x-x----------------------
-------x-x----------x-x----12--------x-x-------10-------------
-------x-x-12-10-11-x-x--------------x-x-------10-------10-10-
-10h12------------------------10h12------10h12----10h12-------
--------------------------------------------------------------
--------------------------------------------------------------

Coro

-----------------------
-----------------------
-------------------5-6-
-----0-5-5-6-6-7-7-5-6-
-5p0-0-5-5-6-6-7-7-3-4-
-----0-5-5-6-6-7-7-----

OOOH yeah!
Aki harto rasgueo tapando las kuerdas
Ahi ve tu el orden
-x---x--x--x--x--x--x--x-x---12-----
-11-11-11-11-11-11-11-11-11---x-11--
-x--x--x--x---x--x--x--x--x---x--x--
------------------------------------
------------------------------------
------------------------------------

despues empieza a tokar esto
con rasgue y weas
-12-
-11-
----
----
----
----

Despues con Wah wah
COn arto rasgueo y weas
-8-6-
-x-x-
-5-3-
-----
-----
-----

Denuevo con rasgueo con harta mano derecha

----------------------
------------------5-5-
-3h5-xxxxx--3h5-------TOO ESTO CON RASGUEO PERMANENTE
----------------------
----------------------
----------------------

Parte vacilona ahi vei tu el rasgueo

-12--------------------------------------------------------
-12-------------10-----------------------------10-12-10----
-12-------11h12----11b12b11-9-----------11h12-----------11-
----10-10---------------------10h12-12---------------------
-----------------------------------------------------------
-----------------------------------------------------------

----------------------------------------------
----------------10----------------------19----
----------11h12----11b12b11-9-----------21b23-
-10h12-12---------------------10h12-12--------
----------------------------------------------
----------------------------------------------


-----------------------------------------------------------
----------------10-----------------------------10-12-10----
----------11h12----11b12b11-9-----------11h12-----------11-
-10h12-12---------------------10h12-12---------------------
-----------------------------------------------------------
-----------------------------------------------------------

----------------------------------------------
----------------10------------------14-13-12-11-12-
----------11h12----11b12b11-9-------12-11-10-9--10-
-10h12-12---------------------10h12-12-11-10-9--10-
---------------------------------------------------
---------------------------------------------------

---------------------------------------------------------
----------------10-----------------------------12-10-----
----------11h12----11b12b11-9-----------11-9----------11-
-10h12-12---------------------10h12-12-------------------
---------------------------------------------------------
---------------------------------------------------------

------------------------------------------------
----------------10------------------------------
----------11h12----11b12b11-9-------------------
-10h12-12---------------------10h12-12-10-10-10-
------------------------------------------------
------------------------------------------------

-----------------------------------------------------------
----------------10-----------------------------10-12-10----
----------11h12----11b12b11-9-----------11h12-----------11-
-10h12-12---------------------10h12-12---------------------
-----------------------------------------------------------
-----------------------------------------------------------

------------------------------------------------
----------------10------------------------------
----------11h12----11b12b11-9-------------------
-10h12-12---------------------10h12-12-10
Calificar esta versión:
Aviso: Este fichero es trabajo propio de su transcriptor y representa su interpretación personal de la canción. El material contenido en esta página es para exclusivo uso privado, por lo que se prohibe su reproducción o retransmisión, así como su uso para fines comerciales.