Cha Cha Cha, Los Tetas (bajo)

Autor: Anónimo | 23729 visualizaciones

Esta si q es na cansion mas wena de los tetas
aprovechenla

Intro(parte A)
G-----------------------------------------
D-------5-7-7/9-5---------7/9-5-----------
A-7-5-7-----------7-7-5-7-------7---5--5--
E-----------------------------------------

G---------------------------------7-----9-
D-------5-7-7/9-5---------5-7-7/9---7/9---
A-7-5-7-----------7-7-5-7-----------------
W-----------------------------------------

G-----------------------------------------
D-------5-7-7/9-5---------7/9-5-----------
A-7-5-7-----------7-7-5-7-------7---5--5--
E-----------------------------------------

G------------------------9---6---7---8-----
D--------5-7-7/9-5-------------------------
A--7-5-7-----------7---7---4---5---6-------
E------------------------------------------

Son las 2 de la mañana  (artas veces)
G-------------------------
D-------------------------
A----------5-5-5--7/9-7/9-
E-0-00-5-7----------------

Tengo tengo tu no tienes nada
G----------------------------------------------
D----------------------------------------------
A------------------------------------5-7/9-7/9-
E-0-0/1-2-3--0-0/1-2-3--0-0/1-2-3--0-----------

Yo soy el funkymero del lugar
G-------------------------
D-------------------------
A----------5-5-5--7/9-7/9-
E-0-00-5-7----------------

Superteta (artas veces)
G--------------------------
D--------------------------
A-------0--------------0---
E-0-2-3---3-2-0—00-2-3---3-

Impacto en el acto
G---------9-7----------
D-------------9-9------
A-5~6~7/0--------------
E-----------------0--5-
*Parte A (se repite muchas veces)

Esta tablatura ta wena = asi q aprovechenla
Si tienen algun cambio me dicen no mas
Mi mail F_mingo_@hotmail.com

Xaoo un saludo pa los xangos de chillan city
Y un gran saludo pa mi amorcito la danii
Qe la amo muxooooooo
xaoooo
Calificar esta versión:
Aviso: Este fichero es trabajo propio de su transcriptor y representa su interpretación personal de la canción. El material contenido en esta página es para exclusivo uso privado, por lo que se prohibe su reproducción o retransmisión, así como su uso para fines comerciales.