Te Odio, Los Seis Dias (tablatura)

Autor: Frensjed | 14866 visualizaciones

Toquenla escuchando la cancion

Esta canción lleva capo en el 3er traste


Arpegios

 F       G
e|------ ------
B|------ ------
G|------ ------ x4 cada acorde
D|-----0 -----0
A|---3-- ---2--
E|-1---- -3----

 Em              Am     Asus2
e|------------0-- ---------------
B|--------0----0- ----1---0--0---
G|----0----0----0 ---2-2---2--2p0
D|---2-2----0---- --2---2---2----
A|--2---2-------- -0-------------
E|-0------------- ---------------

     *F
e|--------0-----
B|-----3---3-3--
G|------0---0-0-
D|---0---0-----0
A|--3-----------
E|-1------------

     *G
e|--------0-----
B|-----3---3-3--
G|------0---0-0-
D|---0---0-----0
A|--2-----------
E|-3------------

     *Em
e|----------------
B|-----0--0-0h3---
G|------0--0-----0
D|---2---0--0-----
A|--2-------------
E|-0--------------

      *Am
e|------3--3--1--
B|-------1--1--0-
G|----2---2--2--2
D|---2-----------
A|--0------------
E|---------------

(Variación)
  F   G   Em
e|-------------
B|-------------
G|----------0-- x3
D|---0--0--2-2-
A|--3--2--2---2
E|-1--3--0-----

F   G   Em     Am    Asus2
e|----------------------------
B|----------0------1---0--0---
G|-----------0----2-2---2--2p0
D|---0--0--2--2--2---2---2----
A|--3--2--2-----0-------------
E|-1--3--0--------------------
(Fin de la variación)


Intro: F G Em Am x2

F                G                         Em
Te odio, por la nota que dejaste al despertar
  Am    Asus2
huyendo.

F                G                         Em
Te odio, por los días que has estado sin estar
  Am    Asus2
dentro de mi.

F              G                           Em           
Te odio, por dejarme a medias antes de llegar
  Am    Asus2
al éxtasis.

F                G                     Em            
Te odio, por tu boca que carece de verdad
  Am     Asus2
y sigue así.

*F        *G
Te odio, como nadie en este mundo te odiara.

*Em *Am

*F        *G
Te odio, como no se puede odiar a nadie mas.
*Em *Am

F                 G
Te odio, por que siempre sigues,
Em                               Am   Asus2
siempre sigues, siempre sigues, ahí.

F                G                       Em
Te odio, tanto que podria hacerte resucitar
   Am   Asus2
del miedo.

(Comienza Variación)

F              G              Em
Olvidaste en mi alma el cuaderno
      F       G          Em
en el que solías preguntar
         F       G            Em
cuantos días quedan para vernos
F       G          Em           Am      Asus2
tengo el corazón a punto de estallar.

(Termina Variación)

*F *G *Em *Am

*F            *G
Te odio, como nadie en este mundo te odiara.
*Em    *Am

*F            *G
Te odio, como no se puede odiar a nadie mas.
*Em  *Am

*F        *G      *Em     *Am ...
Te odio (x6).

Fuente : desacords.blogspot.mx
Calificar esta versión:
Aviso: Este fichero es trabajo propio de su transcriptor y representa su interpretación personal de la canción. El material contenido en esta página es para exclusivo uso privado, por lo que se prohibe su reproducción o retransmisión, así como su uso para fines comerciales.