Demolición, Los Saicos (acordes)

Autor: cthz0811 | 22013 visualizaciones

adee7


los Saicos - 1965
[Erwin Flores / Rolando Carpio

Singer : Erwin Flores

Intro:

     A                      [ varias veces ]
E |--------------------------|
B |--------------------------|
G |--------------------------|
D |--------------------------|
A |--------------------------|
E |--5-5-5-5-5-5-5-5-5-5-5-5-|

     D
E |--------------------------|
B |--------------------------|
G |--------------------------|
D |--------------------------|
A |--------------------------|
E |--10-10-10-10-10-10-10-10-|

     A 
E |--------------------------|
B |--------------------------|
G |--------------------------|
D |--------------------------|
A |--------------------------|
E |--5-5-5-5-5-5-5-5-5-5-5-5-|

     E
E |--------------------------|
B |--------------------------|
G |--------------------------|
D |--------------------------|
A |--------------------------|
E |--0-0-0-0-0-0-0-0-0-0-0-0-|

¡ TATATATATATA  YAYAYAYA ¡

       A 
ECHEMOS ABAJO LA ESTACIÓN DEL TREN

ECHEMOS ABAJO LA ESTACIÓN DEL TREN

ECHEMOS ABAJO LA ESTACIÓN DEL TREN

ECHEMOS ABAJO LA ESTACIÓN DEL TREN

     D
DEMOLER DEMOLER DEMOLER DEMOLER
   A 
ECHEMOS ABAJO LA ESTACIÓN DEL TREN
     E
DEMOLER DEMOLER LA ESTACIÓN DEL TREN

DEMOLER DEMOLER LA ESTACION DEL TREN

TATATATATATA  YAYAYAYA ¡


     A 
NOS GUSTA VOLAR ESTACIONES DE TREN

DEMOLER DEMOLER DEMOLER DEMOLER
     A 
NOS GUSTA VOLAR ESTACIONES DE TREN

DEMOLER DEMOLER DEMOLER DEMOLER


D
YEAH YEAH YEAH YEAH YEAH YEAH YEAH

YEAH YEAH YEAH YEAH YEAH YEAH YEAH - CORO
A
YEAH YEAH YEAH YEAH YEAH YEAH YEAH

YEAH YEAH YEAH YEAH YEAH YEAH YEAH - CORO
E                                    E7
DEMOLER DEMOLER DEMOLER DEMOLER DEMOLER


TATATATATATA  YAYAYAYA ¡

PUNTEO :

    A         D               A         E
E |--------------------------------------------------|
B |-----------3-2-3-2*-------------------------------|
G |-2-2-1-2-1*----------------2-1-2-1*---------------|
D |-------------------------------------2-1-2-1*-----|
A |--------------------------------------------------|
E |--------------------------------------------------|

TATATATATATA  YAYAYAYA


[ repetir nuevamente la canción ]


FINAL

                        A 
TATATATATATA  YAYAYAYA WAAUUUU ¡





Calificar esta versión:
Aviso: Este fichero es trabajo propio de su transcriptor y representa su interpretación personal de la canción. El material contenido en esta página es para exclusivo uso privado, por lo que se prohibe su reproducción o retransmisión, así como su uso para fines comerciales.