Madre, Los Rebujitos (tablatura)

Autor: gonzaloch | 30023 visualizaciones

1ª guitarra española: cuerdas de nylon
2ª guitarra acústica: cuerdas de metal
intro

SIm                      LA              
|-----------2-----------|-----------0--------------|
|------3---------3------|------2---------2---------| gui1
|-----4-4-----4---4-----|-----2--2----2---2--------|
|----4----4----4---4----|----2----2----2---2-------|
|---2-------------------|---0----------------------|
|-----------------------|--------------------------| 
|
|
|-----------------5-----|-------------------5------|
|---2h3--3--2--3--------|---3?3p2--2--2--3---------|
|-----------------------|--------------------------| gui 2
|-----------------------|--------------------------|
|-----------------------|--------------------------|
|-----------------------|--------------------------|

SOL                     FA#
|-----------3---------|------------------------------|
|-------3-------3-----|--------2--3--5--3--2---------|
|------4-4---4---4----|--2--4-----------------2?3----| gui1
|-----5---5---5---5---|------------------------------|
|---------------------|------------------------------|
|---3-----------------|------------------------------|
|
|
|-----------------5---|------------------------------|
|---2h3--3--2--3------|--------2--3--5--3--2---------|
|---------------------|--2--4-----------------2?3----| gui2
|---------------------|------------------------------|
|---------------------|------------------------------|
Verso
Cuando era pequeñito me decia ke me fuera pa mi cuarto?
SIm                         LA
|-----------2-----------|-----------0--------------|
|------3----------------|------2-------------------| gui1
|-----4-4---------------|-----2--2-----------------|
|----4----4-------------|----2----2----------------|
|---2-------------------|---0----------------------|
|-----------------------|--------------------------| 
|
|
|-----------------5-----|-------------------5------|
|---2h3--3--2--3--------|---3?3p2--2--2--3---------|
|-----------------------|--------------------------| gui 2
|-----------------------|--------------------------|
|-----------------------|--------------------------|
|-----------------------|--------------------------|

y mi madre llorando me reñia para que te hiciera caso
SOL                       FA#
|-----------3---------|------------------------------|
|-------3-------------|--------2--3--5--3--2---------|
|------4-4------------|--2--4-----------------2?3----| gui1
|-----5---5-----------|------------------------------|
|---------------------|------------------------------|
|---3-----------------|------------------------------|
|
|
|-----------------5---|------------------------------|
|---2h3--3--2--3------|--------2--3--5--3--2---------|
|---------------------|--2--4-----------------2?3----| gui2
|---------------------|------------------------------|
|---------------------|------------------------------|
|---------------------|------------------------------|


a la virgen del calvario le rezaba porque esta guerra se acabara

SIm                      LA              
|-----------2-----------|-----------0--------------|
|------3---------3------|------2---------2---------| gui1
|-----4-4-----4---4-----|-----2--2----2---2--------|
|----4----4----4---4----|----2----2----2---2-------|
|---2-------------------|---0----------------------|
|-----------------------|--------------------------| 
|
|
|-----------------5-----|-------------------5------|
|---2h3--3--2--3--------|---3?3p2--2--2--3---------|
|-----------------------|--------------------------| gui 2
|-----------------------|--------------------------|
|-----------------------|--------------------------|
|-----------------------|--------------------------|


y por más que cerraba los ojos más le gritabas

SOL                     FA#
|-----------3---------|------------------------------|
|-------3-------3-----|--------2--3--5--3--2---------|
|------4-4---4---4----|--2--4-----------------2?3----| gui1
|-----5---5---5---5---|------------------------------|
|---------------------|------------------------------|
|---3-----------------|------------------------------|
|
|
|-----------------5---|------------------------------|
|---2h3--3--2--3------|--------2--3--5--3--2---------|
|---------------------|--2--4-----------------2?3----| gui2
|---------------------|------------------------------|
|---------------------|------------------------------|
|---------------------|------------------------------|





Pre coro

Ahora ya he crecido ya no quiero estar contigo 
SIm
|-----------2---------|
|------3---------3----|
|-----4-4-----4---4---|gui 1
|----4----4----4---4--|
|---2-----------------|
|---------------------|
|
|
|-----------2---------|
|------3---------3----|
|-----4-4-----4---4---|gui 2
|----4----4----4---4--|
|---2-----------------|
|---------------------|




Ahora yo solo te pido
SOL            FA#
|------------|--------2-3-5-3-2------------|
|-------3----|--5-3-5-----------5-3-2------| gui1
|------4?4---|------------------------4-3--|
|-----5----3-|-----------------------------|
|------------|-----------------------------|
|---3--------|-----------------------------|
|
|
|------------|-----------------------------|
|-------3----|--------2--3--5--3--2--------|
|------4--4--|--2--4-----------------2?3---| gui2
|-----5----3-|-----------------------------|
|------------|-----------------------------|
|---3--------|-----------------------------|

(las dos guitarras rasguean los acordes)

estribillo

SIm
Que cojas tus cosas y te marches...
    LA
No permito que le pegue a mi madre
  SOL
Márchate antes de que sea más tarde
  SOL                     FA#
Márchate y no me sea tan cobarde

SIm
Que cojas tus cosas y te marches...
    LA
No permito que le pegue a mi madre
  SOL
Márchate antes de que sea más tarde
  SOL                     FA#7
Márchate y no me sea tan cobarde

Arreglo de guitarra española

|-------5--5---------5---5h7p5--5-------5---|
|--7-8--------8-7-8---------------8-7-8-----|
|-------------------------------------------| gui 1
|-------------------------------------------|
|-------------------------------------------|
|-------------------------------------------|
|
|
|-----------2----------|-----------0-----------|
|------3---------3-----|------2---------2------| gui2
|-----4-4-----4---4----|-----2--2----2---2-----|
|----4----4----4---4---|----2----2----2---2----|
|---2------------------|---0-------------------|
|----------------------|-----------------------|



|-----------5-7-9-7--7-5---5-7---------------------|
|-8-7-5-7-8--------------7----------2-3-5-3-2------|
|-------------------------------2-4-----------2-3--|gui 1
|--------------------------------------------------|
|--------------------------------------------------|
|--------------------------------------------------|
|
|
|-----------3----------------|----------------------|
|-------3-------3------------|------2-3-5-3-2-------|
|------4-4---4---4-----------|--2-4----------2-3----| gui 2
|-----5---5---5---5----------|----------------------|
|----------------------------|----------------------|
|---3------------------------|----------------------|
 



Ahora los recuerdos me atormentan? Tú le destrozaste la vida

SIm                      LA
|-----------2-----------|-----------0--------------|
|------3---------3------|------2---------2---------| gui1
|-----4-4-----4---4-----|-----2--2----2---2--------|
|----4----4----4---4----|----2----2----2---2-------|
|---2-------------------|---0----------------------|
|-----------------------|--------------------------| 
|
|
|-----------------5-----|-------------------5------|
|---2h3--3--2--3--------|---3?3p2--2--2--3---------|
|-----------------------|--------------------------| gui 2
|-----------------------|--------------------------|
|-----------------------|--------------------------|
|-----------------------|--------------------------|


Le faltaba maquillaje? Para tantas heridas

SOL                     FA#
|-----------3---------|------------------------------|
|-------3-------3-----|--------2--3--5--3--2---------|
|------4-4---4---4----|--2--4-----------------2?3----| gui1
|-----5---5---5---5---|------------------------------|
|---------------------|------------------------------|
|---3-----------------|------------------------------|
|
|
|-----------------5---|------------------------------|
|---2h3--3--2--3------|--------2--3--5--3--2---------|
|---------------------|--2--4-----------------2?3----| gui2
|---------------------|------------------------------|
|---------------------|------------------------------|
|---------------------|------------------------------|


A la virgen del calvario le rezaba pero tú nunca parabas

SIm                      LA
|-----------2-----------|-----------0--------------|
|------3---------3------|------2---------2---------| gui1
|-----4-4-----4---4-----|-----2--2----2---2--------|
|----4----4----4---4----|----2----2----2---2-------|
|---2-------------------|---0----------------------|
|-----------------------|--------------------------| 
|
|
|-----------------5-----|-------------------5------|
|---2h3--3--2--3--------|---3?3p2--2--2--3---------|
|-----------------------|--------------------------| gui 2
|-----------------------|--------------------------|
|-----------------------|--------------------------|
|-----------------------|--------------------------|

Y el alma se me cae por los suelos? Cuando pienso en su cara


SOL                     FA#
|-----------3---------|------------------------------|
|-------3-------3-----|--------2--3--5--3--2---------|
|------4-4---4---4----|--2--4-----------------2?3----| gui1
|-----5---5---5---5---|------------------------------|
|---------------------|------------------------------|
|---3-----------------|------------------------------|
|
|
|-----------------5---|------------------------------|
|---2h3--3--2--3------|--------2--3--5--3--2---------|
|---------------------|--2--4-----------------2?3----| gui2
|---------------------|------------------------------|
|---------------------|------------------------------|
|---------------------|------------------------------|


Pre coro

Ahora ya he crecido ya no quiero estar contigo 



|-----------2---------|
|------3---------3----|
|-----4-4-----4---4---|gui 1
|----4----4----4---4--|
|---2-----------------|
|---------------------|
|
|
|-----------2---------|
|------3---------3----|
|-----4-4-----4---4---|gui 2
|----4----4----4---4--|
|---2-----------------|
|---------------------|






Ahora yo solo te pido

|------------|--------2-3-5-3-2------------|
|-------3----|--2-3-5-----------5-3-2------| gui1
|------4?4---|------------------------4-3--|
|-----5----3-|-----------------------------|
|------------|-----------------------------|
|---3--------|-----------------------------|
|
|
|------------|-----------------------------|
|-------3----|--------2--3--5--3--2--------|
|------4--4--|--2--4-----------------2?3---| gui2
|-----5----3-|-----------------------------|
|------------|-----------------------------|
|---3--------|-----------------------------|

estribillo

SIm
Que cojas tus cosas y te marches...
    LA
No permito que le pegue a mi madre
  SOL
Márchate antes de que sea más tarde
  SOL                     FA#
Márchate y no me sea tan cobarde

SIm
Que cojas tus cosas y te marches...
    LA
No permito que le pegue a mi madre
  SOL
Márchate antes de que sea más tarde
  SOL                     FA#7
MÁRCHATE Y NO ME SEA TAN COBARDE     coro x2

             FIN
 
Cualquier dudas sobre el tema a mi e-mail gxn_mixtape@hotmail.com
awante LOS REBUJITOS
Y viva EL FLAMENCO

Comentarios del colaborador: esta cancion esta claramente en la escala de FA# en modo frigio en otras trnascripciones señalan que la cancion esta en LAm lo cual es falso el flamenco por lo general suele estar en modo frigio

Calificar esta versión:
Aviso: Este fichero es trabajo propio de su transcriptor y representa su interpretación personal de la canción. El material contenido en esta página es para exclusivo uso privado, por lo que se prohibe su reproducción o retransmisión, así como su uso para fines comerciales.