Como Estamos Hoy, Los Ratones Paranoicos (tablatura)

Autor: diarko | 35203 visualizaciones



Tiempo: 4/4 la mayoría del tema. 
Clave: E 
Afinación: e-B-G-D-A-E (standard) 

*Fijense bien cuando hay dos o mas guitarras, y cuando se repite.*- 


~ = Vibrato 
p = Lidago descendente (Pull off) 
h = Lidado ascendente (Hammer on) 
PM = Palm Mute 
/ = Slide 


''''''''''''''''''''''''''''''''''''''''''''''''''''''''''''''''''''''''''''''''''''''' 
...Empieza la batería... 
                                         x1 
    [¦-----------------------------------¦¦ 
    [¦-----------------------------------¦¦ 
  4 [¦*-------__________________--------*¦¦ 
  4 [¦*-------¯¯¯¯¯¯¯¯¯¯¯¯¯¯¯¯¯¯--------*¦¦ 
    [¦-----------------------------------¦¦ 
    [¦-----------------------------------¦¦ 


...Entran las guitarras... 
                                  x3 
¦¦--------------------10-10--12---¦¦ 
¦¦--------------------12-12--14---¦¦ 
¦¦*-------------------12-12--14--*¦¦ 
¦¦*-------------------12-12--14--*¦¦ 
¦¦--------------------10-10--12---¦¦ 
¦¦---3p0-0-0-0--3~~~--------------¦¦ 
¦¦                                ¦¦ 
¦¦--------------------10-10--7----¦¦ 
¦¦--------------------12-12--9----¦¦ 
¦¦*-------------------12-12--9---*¦¦ 
¦¦*-------------------12-12--9---*¦¦ 
¦¦--------------------10-10--7----¦¦ 
¦¦--------------------------------¦¦ 



|-------------------------------|-------------------------------| 
|-------------------------------|-------------------------------| 
|-------------------------------|-------------------------------| 
|-------------------------------|-------------------------------| 
|-------------------------------|-------------------------------| 
|--3p0-0-0-0--3~~~--------------|--3p0-0-0-0--3~~~--------------| 
|                               |                               | 
|------10 -(10) ----10 -(10) ---|------10 -(10) ----10 -10(10) -| 
|------12 -(12) ----12 -(12) ---|------12 -(12) ----12 -12(12) -| 
|------12 -(12) ----12 -(12) ---|------12 -(12) ----12 -12(12) -| 
|------12 -(12) ----12 -(12) ---|------12 -(12) ----12 -12(12) -| 
|------10 -(10) ----10 -(10) ---|------10 -(10) ----10 -10(10) -| 
|-------- ----- ------ ----- ---|-------- ----- ------ ------- -| 



|----------------------------------|-----------------------7-7-6-6-5-5-4-4-| 
|----------------------------------|-----------------------7-7-6-6-5-5-4-4-| 
|----------------------------------|-----------------------8-8-7-7-6-6-5-5-| 
|----------------------------------|-----------------------9-9-8-8-7-7-6-6-| 
|----------------------------------|-----------------------9-9-8-8-7-7-6-6-| 
|--3p0-0-0-0--3~~~-----------------|--3p0-0--0--0-----3~~~-7-7-6-6-5-5-4-4-| 
|                                  |                                       | 
|------10 -(10) ----10(10)10(10)10 |------10 10 10 10 10 ---------10 ------| 
|------12 -(12) ----12(12)12(12)12 |------12 12 12 12 12 ---------12 ------| 
|------12 -(12) ----12(12)12(12)12 |------12 12 12 12 12 ---------12 ------| 
|------12 -(12) ----12(12)12(12)12 |------12 12 12 12 12 ---------12 ------| 
|------10 -(10) ----10(10)10(10)10 |------10 10 12 10 10 ---------10 ------| 
|-------- ----- ------------------ |-------- -- -- -- -- ----------- ------| 



|-3 --------------------------------| 
|-3 --------------------------------| 
|-4 --------------------------------| 
|-5 --------------------------------| 
|-5 --------------------------------| 
|-3 --------------------------------| 


...Entra la voz... 
                            x2 
¦¦------- -------- --- --- -¦¦------ -------- -10(10)(10)-10-| 
¦¦------9 ---9-9-- -12 -12 -¦¦-----9 ---9-9-- -12(12)(12)-12-| 
¦¦*-----9 ---9-9-- -12 -12 *¦¦-----9 ---9-9-- -12(12)(12)-12-| 
¦¦*-----9 ---9-9-- -12 -12 *¦¦-----9 ---9-9-- -12(12)(12)-12-| 
¦¦------7 ---7-7-- -10 -10 -¦¦-----7 ---7-7-- ---------------| 
¦¦------- -------- --- --- -¦¦------ -------- ---------------| 


                              x2 
¦¦-----10 --10 -----9- --9- --¦¦-----10 --10 --9- ---------| 
¦¦-----12 --12 -----11 --11 --¦¦-----12 --12 --11 ---------| 
¦¦*----12 --12 -----11 --11 -*¦¦-----12 --12 --11 ---------| 
¦¦*----12 --12 -----11 --11 -*¦¦-----12 --12 --11 ---------| 
¦¦------- ---- ------- ---- --¦¦------- ---- ---- ---------| 
¦¦------- ---- ------- ---- --¦¦------- ---- ---- ---------| 



|-----9- ----9--9--9-- -10 --10 |-----9- ---9- ------10 --10 | 
|-----11 ----11-11-11- -12 --12 |-----11 ---11 ------12 --12 | 
|-----11 ----11-11-11- -12 --12 |-----11 ---11 ------12 --12 | 
|-----11 ----11-11-11- -12 --12 |-----11 ---11 ------12 --12 | 
|-----9- ----9--9--9-- -10 --10 |-----9- ---9- ------10 --10 | 
|--------------------- --- ---- |------- ----- -------- ---- | 
|                               |                            | 
|-------------------------------|----------------------------| 
|-------------------------------|----------------------------| 
|-------------------------------|----------------------------| 
|-------------------------------|----------------------------| 
|---------------------------1-2~|------------------------1-2~| 
|--------------------------3----|-----------------------3----| 


                                                                    x1 
|-----10- --10- -----9-- --9--9- -¦¦------10- --10- -----9-- --9-- -¦¦ 
|-----12- --12- -----11- --11-11 -¦¦------12- --12- -----11- --11- -¦¦ 
|-----12- --12- -----11- --11-11 -¦¦*-----12- --12- -----11- --11- *¦¦ 
|-----12- --12- -----11- --11-11 -¦¦*-----12- --12- -----11- --11- *¦¦ 
|-------- ----- -------- ------- -¦¦--------- ----- -------- ----- -¦¦ 
|-------- ----- -------- ------- -¦¦--------- ----- -------- ----- -¦¦ 
|                                 ¦¦                                ¦¦ 
|---------------------------------¦¦--------------------------------¦¦ 
|---------------------------------¦¦--------------------------------¦¦ 
|-4-4------------4-4--------------¦¦*-4-4------------4-4-----------*¦¦ 
|-4-4------------4-4--------------¦¦*-4-4------------4-4-----------*¦¦ 
|-2-2------------2-2--------------¦¦--2-2------------2-2------------¦¦ 
|---------------------------------¦¦--------------------------------¦¦ 



|-----10- --10- -----10- --10- --| 
|-----12- --12- -----12- --12- --| 
|-----12- --12- -----12- --12- --| 
|-----12- --12- -----12- --12- --| 
|-------- ----- -------- ----- --| 
|-------- ----- -------- ----- --| 
|                                | 
|---------------------(10) -(10) | 
|---------------------(12) -(12) | 
|---------------------(12) -(12) | 
|---------------------(12) -(12) | 
|------------------------- ----- | 
|------------------------- ----- | 



|-------------------------------|---------------------------------| 
|-------------------------------|---------------------------------| 
|-------------------------------|------------------1-1-1-1-1-1-1-1| 
|-------------------------------|------------------2-2-2-2-2-2-2-2| 
|-------------------------------|------------------2-2-2-2-2-2-2-2| 
|-------------------------------|------------------0-0-0-0-0-0-0-0| 
                                                 P.M............... 


|----------------------------|---------------------------| 
|----------------------------|---------------------------| 
|----------------------------|9-9- 9-9-9- 9-8-8- 8-8-8- 8| 
|5-5- 5-5-5- 5-4-4- 4-4-4- 4-|9-9- 9-9-9- 9-8-8- 8-8-8- 8| 
|5-5- 5-5-5- 5-4-4- 4-4-4- 4-|7-7- 7-7-7- 7-6-6- 6-6-6- 6| 
|3-3- 3-3-3- 3-2-2- 2-2-2- 2-|---------------------------| 



|-------------------------------------| 
|-------------------------------------| 
|-12-12- 12-12-12- 12-11-11- 11-11-11-| 
|-12-12- 12-12-12- 12-11-11- 11-11-11-| 
|-10-10- 10-10-10- 10-9--9-- 9--9--9--| 
|-------------------------------------| 


                                                                                     x2 
|--------------------------|-----------------------------¦¦--------------------------¦¦ 
|--------------------------|-----------------------------¦¦--------------------------¦¦ 
|--------------------------|-----------------------------¦¦*------------------------*¦¦ 
|--------------------------|-----------------------------¦¦*------------------------*¦¦ 
|--------------------------|-----------------------------¦¦---------------------2----¦¦ 
|--3p0-0-3~~~----------3p0-|3p0-0-0-0--3~~~--------------¦¦-0-----------5---3h5------¦¦ 
|                          |                             ¦¦                          ¦¦ 
|--0=======================|=============================¦¦--------------------------¦¦ 
|--0=======================|=============================¦¦--------------------------¦¦ 
|--1================R A S G|U E A R======================¦¦*------------------------*¦¦ 
|--2=======================|=============================¦¦*------------------------*¦¦ 
|--2=======================|=============================¦¦--------------------------¦¦ 
|--0=======================|=============================¦¦--------------------------¦¦ 



|--------------------------|--------------------------| 
|--------------------------|--------------------------| 
|--------------------------|--------------------------| 
|--------------------------|--------------------------| 
|--------------------------|--------------------------| 
|-0------------------------|--------------------------| 
|                          |                          | 
|--------------------------|--------------------------| 
|--------------------------|--------------------------| 
|-----------------14\------|--------------------------| 
|-----------------14\------|--------------------------| 
|-----------------12\------|--------------------------| 
|--------------------------|--------------------------| 



|---- ------ ------ --------|---- ------ ------ --------| 
|---- ------ ------ --------|---- ------ ------ --------| 
|1-1- 1-1-1- 1-6-6- 6-6-6 6-|1-1- 1-1-1- 1-6-6- 6-6-6 6-| 
|2-2- 2-2-2- 2-7-7- 7-7-7 7-|2-2- 2-2-2- 2-7-7- 7-7-7 7-| 
|2-2- 2-2-2- 2-7-7- 7-7-7 7-|2-2- 2-2-2- 2-7-7- 7-7-7 7-| 
|0-0- 0-0-0- 0-5-5- 5-5-5 5-|0-0- 0-0-0- 0-5-5- 5-5-5 5-| 



|---- ------ ------ --------|---- ------ ------ --------| 
|---- ------ ------ --------|---- ------ ------ --------| 
|1-1- 1-1-1- 1-6-6- 6-6-6 6-|1-1- 1-1-1- 1-6-6- 6-6-6 6-| 
|2-2- 2-2-2- 2-7-7- 7-7-7 7-|2-2- 2-2-2- 2-7-7- 7-7-7 7-| 
|2-2- 2-2-2- 2-7-7- 7-7-7 7-|2-2- 2-2-2- 2-7-7- 7-7-7 7-| 
|0-0- 0-0-0- 0-5-5- 5-5-5 5-|0-0- 0-0-0- 0-5-5- 5-5-5 5-| 
|                           |                           | 
|0--- 0-0--- 0-0--- 0-0-- 0-|0--- 0-0--- 0-0--- 0-0-- 0-| 
|0--- 0-0--- 0-2--- 2-2-- 2-|0--- 0-0--- 0-2--- 2-2-- 2-| 
|1--- 1-1--- 1-2--- 2-2-- 2-|1--- 1-1--- 1-2--- 2-2-- 2-| 
|2--- 2-2--- 2-2--- 2-2-- 2-|2--- 2-2--- 2-2--- 2-2-- 2-| 
|2--- 2-2--- 2-0--- 0-0-- 0-|2--- 2-2--- 2-0--- 0-0-- 0-| 
|0--- 0-0--- 0----- ----- --|0--- 0-0--- 0----- ----- --| 
|                           |                           | 
|0=============5============|0=============5============| 
|0=============5============|0=============5============| 
|1=============6============|1=============6============| 
|2=============7============|2=============7============| 
|2=============7============|2=============7============| 
|0=============5============|0=============5============| 



|---- ------ ------ --------|---- ---------- -----------|    |--------| 
|---- ------ ------ --------|---- ---------- -----------|    |--------| 
|1-1- 1-1-1- 1-6-6- 6-6-6 6-|1-1- 1-1-1- 1-6 -----------|  2 |--------| 
|2-2- 2-2-2- 2-7-7- 7-7-7 7-|2-2- 2-2-2- 2-7 -----------|  4 |--------| 
|2-2- 2-2-2- 2-7-7- 7-7-7 7-|2-2- 2-2-2- 2-7 -----------|    |--------| 
|0-0- 0-0-0- 0-5-5- 5-5-5 5-|0-0- 0-0-0- 0-5 -----------|    |--------| 
|                           |                           |    |        | 
|0--- 0-0--- 0-0--- 0-0-- 0-|0--- 0-0--- 0-0 -----------|    |--------| 
|0--- 0-0--- 0-2--- 2-2-- 2-|0--- 0-0--- 0-2 -----------|    |--------| 
|1--- 1-1--- 1-2--- 2-2-- 2-|1--- 1-1--- 1-2 -----------|  2 |--------| 
|2--- 2-2--- 2-2--- 2-2-- 2-|2--- 2-2--- 2-2 -----------|  4 |--------| 
|2--- 2-2--- 2-0--- 0-0-- 0-|2--- 2-2--- 2-0 -----------|    |--------| 
|0--- 0-0--- 0----- ----- --|0--- 0-0--- 0-- -----------|    |--------| 
|                           |                           |    |        | 
|0=============5============|0=============5 -----------|    |--------| 
|0=============5============|0=============5 -----------|    |--------| 
|1=============6============|1=============6 -----------|  2 |--------| 
|2=============7============|2=============7 -----------|  4 |--------| 
|2=============7============|2=============7 -----------|    |--------| 
|0=============5============|0=============5 -----------|    |--------| 


                                                               x1 
    ¦¦----- ------ ------ --------¦---- ------ ------ ----- ---¦¦ 
    ¦¦----- ------ ------ --------¦---- ------ ------ ----- ---¦¦ 
  4 ¦¦*1-1- 1-1-1- 1-6-6- 6-6-6 6-¦1-1- 1-1-1- 1-6-6- 6-6-6 6-*¦¦ 
  4 ¦¦*2-2- 2-2-2- 2-7-7- 7-7-7 7-¦2-2- 2-2-2- 2-7-7- 7-7-7 7-*¦¦ 
    ¦¦-2-2- 2-2-2- 2-7-7- 7-7-7 7-¦2-2- 2-2-2- 2-7-7- 7-7-7 7--¦¦ 
    ¦¦-0-0- 0-0-0- 0-5-5- 5-5-5 5-¦0-0- 0-0-0- 0-5-5- 5-5-5 5--¦¦ 
    ¦¦                            ¦                            ¦¦ 
    ¦¦-0--- 0-0--- 0-0--- 0-0-- 0-¦0--- 0-0--- 0-0--- 0-0-- 0--¦¦ 
    ¦¦-0--- 0-0--- 0-2--- 2-2-- 2-¦0--- 0-0--- 0-2--- 2-2-- 2--¦¦ 
  4 ¦¦*1--- 1-1--- 1-2--- 2-2-- 2-¦1--- 1-1--- 1-2--- 2-2-- 2-*¦¦ 
  4 ¦¦*2--- 2-2--- 2-2--- 2-2-- 2-¦2--- 2-2--- 2-2--- 2-2-- 2-*¦¦ 
    ¦¦-2--- 2-2--- 2-0--- 0-0-- 0-¦2--- 2-2--- 2-0--- 0-0-- 0--¦¦ 
    ¦¦-0--- 0-0--- 0----- ----- --¦0--- 0-0--- 0----- ----- ---¦¦ 
    ¦¦                            ¦                            ¦¦ 
    ¦¦-0=============5============¦0=============5=============¦¦ 
    ¦¦-0=============5============¦0=============5=============¦¦ 
  4 ¦¦*1=============6============¦1=============6============*¦¦ 
  4 ¦¦*2=============7============¦2=============7============*¦¦ 
    ¦¦-2=============7============¦2=============7=============¦¦ 
    ¦¦-0=============5============¦0=============5=============¦¦ 


...Entran los vientos... 
                              x3 
¦¦----- ------ ---- ---- -----¦¦ 
¦¦----- ------ ---- ---- -----¦¦ 
¦¦*4-4- 4----- --6- 4-6- 4-6-*¦¦ 
¦¦*5-5- 5----- --7- 5-7- 5-7-*¦¦ 
¦¦-5-5- 5----- --7- 5-7- 5-7--¦¦ 
¦¦-3-3- 3----- --5- 3-5- 3-5--¦¦ 


                              x3 
¦¦----- ------ ---- ---- -----¦¦ 
¦¦----- ------ ---- ---- -----¦¦ 
¦¦*4-4- 4----- --6- 4-6- 4-6-*¦¦ 
¦¦*5-5- 5----- --7- 5-7- 5-7-*¦¦ 
¦¦-5-5- 5----- --7- 5-7- 5-7--¦¦ 
¦¦-3-3- 3----- --5- 3-5- 3-5--¦¦ 
¦¦                            ¦¦ 
¦¦-3=============0============¦¦ 
¦¦-0=============2============¦¦ 
¦¦*0=============2===========*¦¦ 
¦¦*0=============2===========*¦¦ 
¦¦-2=============0============¦¦ 
¦¦-3=============-------------¦¦ 



|---- ------ --- ---------|    |----------|] 
|---- ------ --- ---------|    |----------|] 
|4-4- 4----- --6 ---------|  2 |----------|] 
|5-5- 5----- --7 ---------|  4 |----------|] 
|5-5- 5----- --7 ---------|    |----------|] 
|3-3- 3----- --5 ---------|    |----------|] 
|                         |    |          |]  F I N 
|3=============0 ---------|    |----------|] 
|0=============2 ---------|    |----------|] 
|0=============2 ---------|  2 |----------|] 
|0=============2 ---------|  4 |----------|] 
|2=============0 ---------|    |----------|] 
|3=============- ---------|    |----------|] 



LA SI DO



UN POCO COMPLICADO PARA LOS PRINCIPIANTES





Comentarios del colaborador: MUSICAYAMIGOS.COM

Calificar esta versión:
Aviso: Este fichero es trabajo propio de su transcriptor y representa su interpretación personal de la canción. El material contenido en esta página es para exclusivo uso privado, por lo que se prohibe su reproducción o retransmisión, así como su uso para fines comerciales.