Hotel, Los Rancheros (acordes)

Autor: gwashburn | 42701 visualizaciones

amcdffa
 
No se usa el Fa comun sino este : 003213
los arpegios se utilizan solamente en los versos, en el coro se usa rasguido

        C            D               F
e|-------------|-------3------|-------3------|
b|-----1-------|-----2---2--2-|-----1---1--1-|
g|----0--0---2-|---3-------3--|---2-------2--|
d|---2-----2---|-0------------|-3------------|
a|--3----------|--------------|--------------|
E|-------------|--------------|--------------|

         C           
e|-------------|
b|-----1-------|
g|----0--0---2-|
d|---2-----2---|
a|--3----------|
E|-------------|

C               D
La puedo oír subir
F                          C
las escaleras del viejo hotel
C                      D
su piel no huele a channel
F                           C
habrá dormido en algún cuartel.

C                D
La espero despierto,
F                              C
porque mis nervios no me dejan dormir
Am               D
ella es tan distinta
F                       C
pero es así como la conocí.

Y nunca la pude ver
parecida a otra mujer
sus piernas son largas
su cara pálida como un papel

a veces quisiera amar
a una mujer normal
pero ella es toda mi inspiración
le pone vértigo a mi vida

CORO:
C                D              F                  C
Vivimos en un hotel, con las miserias del mundo de hoy
C               D             F           C
yo soy un artista y ella camina en la avenida


C         D          F            C
Camina, camina, camina en la avenida  [repite] 
Calificar esta versión:
Aviso: Este fichero es trabajo propio de su transcriptor y representa su interpretación personal de la canción. El material contenido en esta página es para exclusivo uso privado, por lo que se prohibe su reproducción o retransmisión, así como su uso para fines comerciales.