Nada Soy, Los Quipus (acordes)

Autor: Anónimo | 25601 visualizaciones

a7amcdme7g7


Holas!!! Weno ps esta es mi 2da tab, epero k les guste,,,esta 100%
 correcta ah si k el k me diga k sta mal ,,k no joda!!!
jajaja no mentira, cualkier consulta escribanme ps jj19_89@hotmail.com

Esta cancion se la dedico a mi amor HELENE,mas conocida como bubba,
kiero k todos sepan k la amo!!!

Weno sòlo pònganle muxo feeling y sale chvr
AH  ya saben como es el ritmo del vals no??
Es un golpe en la 6ta cuerda y dos golpes en las cuerdas
1,2 y 3 con los dedos i,m,a

-en la tab los”*” significan un rasgueo
Am*…..es un rasgueo lento desde las 6ta cuerda hasta la 1ra cuerda…

RIFF
1|----------
2|----------
3|----------
4|----------
5|------0---
6|-0-2-3----


INTRO

1|----10-10*--12-13--------5-5*--7-8-------
2|--10---10*--------11----5--5*------7-----
3|-------10*-----------------5*------------
4|-----------------------------------------
5|-----------------------------------------
6|-----------------------------------------

1|-------------7-7--7-10-10--10-8-----------8-8*--
2|------9-9--9-9-9--9-12-12--12-10--------10--10*-
3|--4s9-9-9--9---------------------------9----9*--
4|-----------------------------------9-10-----10*-
5|------------------------------------------------
6|------------------------------------------------

VERSO 1
      Am            E7        Am Am
Nada soy, sin tu cariño nada soy
      Dm            A7         Dm Dm
Nada soy, si no te tengo nada soy…
        C          G7          C
Me enseñaste a quererte con delirio
        G7            C             E7             Am *RIFF
Hoy mi vida es un martirio si no estas mas junto a mi…..
        Am            E7           Am Am
Te busquè, por todas partes te busquè
           Dm       E7         Dm Dm
Y al no poder encontrarte, llorè
       C             G7              C
Que dolor siente mi pecho, ay que dolor
        G7           C              E7         Am A7
Te olvidaste de mi amor que hoy no vivirà sin ti


Coro:
                Dm
Te fuiste sin motivo de mi lado
G7            C
Llorò mi corazòn sacrificado,
C                   E7          E7
El ser que a ti te quizo con pasiòn
                  Am  A7
Y que te diò su amor….
                Dm
NO tiene la dulzura de tus besos
 G7            C
Tampoco la ternura de tu amor
C           E7           E7          Am*
Ahora nada soy sin tu cariño, nada soy…


INTRO:

CORO: X2


Salu2 a la promo 2006 del sto toribio ps





Calificar esta versión:
Aviso: Este fichero es trabajo propio de su transcriptor y representa su interpretación personal de la canción. El material contenido en esta página es para exclusivo uso privado, por lo que se prohibe su reproducción o retransmisión, así como su uso para fines comerciales.