Chac Tu Chac (intro), Los Piojos (tablatura)

Autor: nacholopez | 38373 visualizaciones

solo es el intro q se usara en casi toda la cancion


    Am                     G  G#  Am
e|-----------------------------------|
B|-----------------------------------| 
G|---5---5---5---5---5---5---5---5---|
D|-7---7---7---7---7---7---5---6---7-|
A|-----------------------------------|
E|-----------------------------------|

u otra forma mas facil de hacer es...

    Am                               G  G#  Am
e|-------------------------------------------------|
B|------1-----1-----1----1-----1----1----1----1---1| 
G|---2-----2-----2----2-----2----2----0----1----2--|
D|-------------------------------------------------|
A|-------------------------------------------------|
E|-------------------------------------------------|
Calificar esta versión:
Aviso: Este fichero es trabajo propio de su transcriptor y representa su interpretación personal de la canción. El material contenido en esta página es para exclusivo uso privado, por lo que se prohibe su reproducción o retransmisión, así como su uso para fines comerciales.