Mucha Experiencia (requinto), Los Pericos (tablatura)

Autor: kali sokrts | 26302 visualizaciones



Bueno pues ahora les dejo el requinto o solo de la canción de los pericos,podria complementarse con los acordes que ya estan, se parece según yo y psss haber que opinan ustedes.





E/--2-3-2---------3-5---4-5-4---------5-3--------------/
B/--------3-3---3-------------5-5---5------------------/
G/------------4-------------------5--------------------/
D/-----------------------------------------------------/
A/-----------------------------------------------------/
E/-----------------------------------------------------/


E/--2-3-2---------3-5---4-5-4---------5-3--------------/
B/--------3-3---3-------------5-5----------------------/
G/------------4-------------------4-5------------------/
D/-----------------------------------------------------/
A/-----------------------------------------------------/
E/-----------------------------------------------------/





Calificar esta versión:
Aviso: Este fichero es trabajo propio de su transcriptor y representa su interpretación personal de la canción. El material contenido en esta página es para exclusivo uso privado, por lo que se prohibe su reproducción o retransmisión, así como su uso para fines comerciales.