La Del Moño Colorado, Los Pedernales (acordes)

Autor: Anónimo | 795 visualizaciones

ae
REQUINTO
e--2-2-2-2-2-----0------------|--2-2-2-2-2----0----------
B-------------3-----2-3-3-----|-------------3---3-2------
G-----------------------------|--------------------------
D-----------------------------|--------------------------
A-----------------------------|--------------------------
E-----------------------------|--------------------------

e--3-3-3-3-3--2--0---0-0------|--5---5-5---3-2-0---------
B------------------3----------|-------------------3------
G-----------------------------|--------------------------
D-----------------------------|--------------------------
A-----------------------------|--------------------------
E-----------------------------|--------------------------

ARREGLO
e----0---0--------------------|
B--2---2---2------------------|
G-----------------------------|


ACORDES

A
Que le digo si la miro 

Cuando la miro pasar
E                         x2
Mi corazón se estremece
                     A 
Y empiezo a tartamudear  - ARREGLO -
   

A                E
La del moño colorado  - ARREGLO - 
                     A 
Me trae todo el día mareado - ARREGLO -
                     E
Me trae todo el día mareado - ARREGLO -

La del moño colorado  - REQUINTO -


A
De todas las que yo miro

Hay una que quiero mas        
E                           x2
Con la del mocito rojo
                  A 
Me quisiera yo casar  - ARREGLO -


A                E
La del moño colorado  - ARREGLO - 
                     A 
Me trae todo el día mareado - ARREGLO -
                     E
Me trae todo el día mareado - ARREGLO -

La del moño colorado  - REQUINTO -


A
Ya parece que le digo
                     E
Que no la puedo olvidar
                            x2
Mi corazón se estremece
                      A 
Y empiezo a tartamudear  - ARREGLO -


A                E
La del moño colorado  - ARREGLO - 
                     A 
Me trae todo el día mareado - ARREGLO -
                     E
Me trae todo el día mareado - ARREGLO -

La del moño colorado  - REQUINTO x3 veces hasta ir disminuyendo el sonido -


Gracias y espero y les guste, si tienen dudas 
o otra manera mejor de tocar esta canción
háganmelo saber a mi correo.
leon.itev@gmail.com
Calificar esta versión:
Aviso: Este fichero es trabajo propio de su transcriptor y representa su interpretación personal de la canción. El material contenido en esta página es para exclusivo uso privado, por lo que se prohibe su reproducción o retransmisión, así como su uso para fines comerciales.