Celos De Luna, Los Panchos (tablatura)

Autor: Anónimo | 28002 visualizaciones

para requinto

----0--1--3-----0--1--3/5--3--1--0--1--
----1--3--5-----1--3--5/6--5--3--1--3--
-0-----------0-------------------------
---------------------------------------
---------------------------------------
---------------------------------------

----------0--1--1/3--1/3--1--0-----0------
--0-1--3--1--3--3/5--3/5--3--1--3--1------
--0-2--4------------------------4---------
---------------------------------------
---------------------------------------
---------------------------------------

-----------0--1--0--------------------------
--0--1--3--1--3--1--3--1--1/3--3--2--1--0---
--0--2--4-----------4--2--2/4--4--3--2--0---
--------------------------------------------
--------------------------------------------
--------------------------------------------
Calificar esta versión:
Aviso: Este fichero es trabajo propio de su transcriptor y representa su interpretación personal de la canción. El material contenido en esta página es para exclusivo uso privado, por lo que se prohibe su reproducción o retransmisión, así como su uso para fines comerciales.