Parrandero, Los Palmeras (acordes)

Autor: Anónimo | 39439 visualizaciones

acdmgm


jaja bue ahi va

e--------------------------------------------------------|
b--------------------------------------------------------|
g-------------0--2--3--2-----------0--2--3--5--2---------|BIS
D-0--0--2--3--------------2--2--3------------------------|
A--------------------------------------------------------|
E--------------------------------------------------------|

e--------------------------------------------------------
b---------------------------------------2--5--3----------
g----------------------2--3--2--2----2-------------------
D--0--0--2--3--3----3------------------------------------
A--------------------------------------------------------
E--------------------------------------------------------

Dm                             Gm
llega el sabado y seguro yo me rajo
C                              Dm
imposible resistirme a lo que quiero
Dm                             Gm
soy capaz de dejar todo abandonado
C                              Dm
por un rato de parranda yo me muero

Gm
y una vez que llego al baile
Dm
no me quiero ni perder
A                        Dm
un minuto hasta ver el amanecer
Gm
y una vez que llego al baile
Dm
no me quiero ni perder
A                        Dm
un minuto hasta ver el amanecer

Dm
otra vez, otra vez
Gm                          Dm
la culpa de todo la tuvo el vino
Dm
que paso? que paso?
Gm               A        Dm
que yo he nacido negro y parrandero

Dm  -  A                 Dm
aeeeeeeeea yo soy parrandero
Dm  -  A               Dm
aeeeeeeeea parrandero, parrandero!
aeeeeeeeea yo soy parrandero
aeeeeeeeea parrandero, parrandero!

[solo]

corre el trago, corre el trago
cada noche
y la fiesta se me sube a la cabeza
voy perdido entre mujeres y cerveza
y la musica me llega hasta los huesos
al llegar la madrugada voy camino a descansar
para estar al otro dia sin parar
al llegar la madrugada voy camino a descansar
para estar al otro dia sin parar

otra vez, otra vez
la culpa de todo la tuvo el vino
que paso? que paso?
que yo he nacido negro y parrandero

aeeea yo soy parrandero
aeeea parrandero, parrandero!
aeeea yo soy parrandero
aeeea parrandero, parrandero!

[solo]

aeeea yo soy parrandero
aeeea parrandero, parrandero!
aeeea yo soy parrandero
aeeea parrandero, parrandero!
x3


un saludo para juan! jaja





Calificar esta versión:
Aviso: Este fichero es trabajo propio de su transcriptor y representa su interpretación personal de la canción. El material contenido en esta página es para exclusivo uso privado, por lo que se prohibe su reproducción o retransmisión, así como su uso para fines comerciales.