Sueños, Los Nietos De Sinaloa (tablatura)

Autor: vejo | 34085 visualizaciones

INTRO:

            A
 e----------9--9--9--9--9--9--9--9-12-9------
 B---10-12-10-10-10-10-10-10-10-10-----------
 G--9----------------------------------------
 D-------------------------------------------

    D                       B7
 e--5-5-5-5-5-5-5-5---9--7--5-5-5-5-5-5-5-5-5-----
 B--7-7-7-7-7-7-7-7--10--9--7-7-7-7-7-7-7-7-7-----
 G------------------------------------------------
 D------------------------------------------------

        E
 e---9--9\7-7\5-5/7------
 B--10-10\9-9\7-7/9------      (X2)
 G-----------------------
 D-----------------------

                C#m            D B7         E       E
 e--9-9-9-7-5-5h7--7-7-7-5-4-4h5--5-5-5-4-2-0-------0------|
 B--------------------------------------------------0------|
 G--------------------------------------------------1------|
 D-------------------------------------------------0-------|
 A------------------------------------------------2--------|
 E-----------------------------------------------0---------|


       A        C#m
 Cada tarde yo miro.
        D                 B7        E
 Tu sonrisa cariñosa acercandose a mi.
          A        C#m
 Y en tus ojos yo veo.
       D                        B7                  E
 El cariño que me tienes y el amor que sientes por mi.

          C#m                 D
 En un abrazo feliz tu me entregas.
         B7                 E
 La alegria de volvernos a ver.
        A         C#m
 Y abrazados caminamos.
       D                     B7        E
 Y al oido te pregunto me quieres ¿verdad?

        A          C#m
 Te detienes y me miras.
         D                      B7             E
 Te sonries y me dices que sin mi no puedes vivir.
        C#m                 D
 Un suspiro te abrazo a mi pecho.
        B7                      E
 Y alo lejos escucho aquel tic-tac.

       A
 Son sueños los que yo vivi.
        D
 En un mundo lleno de ilusiones.
         B7                 E
 En un tiempo fuera de la realidad.

      A
 Despierto y miro tu foto.
         D
 Me sorprende una gran verdad.
            B7
 Tu estas fuera de mi camino.
               E                     A
 Pero solo te pido...que me dejes soñar.


         SE REPITE NUEVAMENTE EL INTRO

       A
 Son sueños los que yo vivi.
        D
 En un mundo lleno de ilusiones.
         B7                 E
 En un tiempo fuera de la realidad.

      A
 Despierto y miro tu foto.
         D
 Me sorprende una gran verdad.
            B7
 Tu estas fuera de mi camino
               E                     A
 Pero solo te pido...que me dejes soñar.

       A
 Son sueños los que yo vivi.
        D
 En un mundo lleno de ilusiones.
         B7                 E
 En un tiempo fuera de la realidad.

      A
 Despierto y miro tu foto.
         D
 Me sorprende una gran verdad.
            B7
 Tu estas fuera de mi camino.
               E                     A ***
 Pero solo te pido...que me dejes soñar



***
           A                   A                  A         A
 e---------9-12-9--------------9-12-9-------------9-12-9----------|
 B----10-12------12-10----10-12------12-10---10-12------12--10----|
 G--9--------------------9------------------9--------------9------|
 D----------------------------------------------------------------|

Comentarios del colaborador: aki nomas dejando mi primera cancion y ps ayy ustedes despues me pasan la de hotel california version acustica sale ps saludos pa todos y tengo 12 años ... shaooo!!!

Calificar esta versión:
Aviso: Este fichero es trabajo propio de su transcriptor y representa su interpretación personal de la canción. El material contenido en esta página es para exclusivo uso privado, por lo que se prohibe su reproducción o retransmisión, así como su uso para fines comerciales.