Se Apago Mi Estrella, Los Nietos De Sinaloa (acordes)

Autor: zhangel | 15510 visualizaciones

bmdgla
es de tipo acordes pero iiiaaa vn 
6.-------------------------------------------------------------------------------------------------
5.-------------------------------------------------------------------------------------------------
4.-------------------------------------------------------------------------------------------------
3.-------------------------------2-2-2---------------------2---------------------------------------
2.-----------3-3/7-----------3-3---2-2--3-3-3-3-3-5-5-3-3---3-------------8-8-8-8-10-12-12-10-10-10
1.--2-2-2-2-0-------3-3-3-3-0-----------2-2-2-2-5-7-7-5-5-----2---10-9-7--7-7-7-7-9--10-10--9--9--9

6.---------------
5.---------------
4.---------------
3.---------------
2.--------5---5-3
1.--5-3-2--2/3---





Un saludoo para todos los de HermosiiLLo, sonoRaa! en especiaL! aa losz de mR ii losz de la graL.#4!! D Bm no te agradesco tu amor,con cariño y compresion G La G La D pero no debo,darte promesas que no,puedo cumplir G La Bm pues no te puedo entregar,lo que quisieras de Mi G La perdoname por favor D Bm G como quisiera escapar,asi poderme librar de sus La G La D recuerdos,y darte todo lo que tu te mereces,y G La D Bm G,La,D asi poderte pagar,tu amor incondicional...amiga D Bm G La D pero que puedo hacer,si se llevo todo mi corazon Bm G La D Bm G con ella,y no volvera,dime que puedo hacer,si La D Bm si desde se marcho se apago mi estrella, G La D Bm,G,La ya no brillara jamas......... [para terminar se repite lo ultimo]

Comentarios del colaborador: pzzz va pa riva

Calificar esta versión:
Aviso: Este fichero es trabajo propio de su transcriptor y representa su interpretación personal de la canción. El material contenido en esta página es para exclusivo uso privado, por lo que se prohibe su reproducción o retransmisión, así como su uso para fines comerciales.