Palabras, Los Nietos De Sinaloa (tablatura)

Autor: zhangel | 16898 visualizaciones

intro

e|-----10-10-10-9--------------------10-10-10-12--12-10-12-14-10-
b|-10--------------12-10-10-10---10------------------------------
g|---------------------------------------------------------------
d|---------------------------------------------------------------
a|---------------------------------------------------------------
e|---------------------------------------------------------------

e|-----10-10-10-9----------------------------------------------------
b|-10---------------12-10-10--10--10-------12------------------------
g|-------------------------------------11------11-12-12-11-9----9----
d|-----------------------------------------------------------11---12-
a|-------------------------------------------------------------------
e|-------------------------------------------------------------------




D                       A7
No puedo decirte que te quiero
G                       D
no puedo actuar por mi mismo
D                             A7
no he podido decirte que lo siento
               D
aqui dentro de mi.

D                          A7
Al mirarte caminar me estremesco
G                                  D
con tu andar melodioso me vuelvo loco
D                        A7
me gustan tus ojos tu sonrisa
                D     D7
y tus labios rojos.

G            A7     D
Palabras son solo palabras
G             A7               D
no puedo conjugarlas con mi guitarra
G            A7
no puedo componer
          D          Bm
ninguna cancion para ti
G                A7         D
que me hable solamente los dos.

D                           A7
No he podido escribir nada bueno
G                                D
algo con lo que te diga que te quiero
D                                 A7
no h epodido escribir letra con letra
                  D     D7
como lo hace el poeta.

G            A7     D
Palabras son solo palabras
G             A7               D
no puedo conjugarlas con mi guitarra
G            A7
no puedo componer
          D          Bm
ninguna cancion para ti
G                A7         D
que me hable solamente los dos.


G            A7     D
Palabras son solo palabras
G             A7               D
no puedo conjugarlas con mi guitarra
G            A7
no puedo componer
          D          Bm
ninguna cancion para ti
G                A7         D
que me hable solamente los dos.

Comentarios del colaborador: ua

Calificar esta versión:
Aviso: Este fichero es trabajo propio de su transcriptor y representa su interpretación personal de la canción. El material contenido en esta página es para exclusivo uso privado, por lo que se prohibe su reproducción o retransmisión, así como su uso para fines comerciales.