Aun Te Extraña, Los Nietos De Sinaloa (tablatura)

Autor: ferfrias | 18326 visualizaciones

INTRO
E|--7----5----4--------
B|-9----7----5------3-2-
G|----------------------

E/-9-9-9-7-9-7-9--------------------------10-10-10-9-10-9-10-10-9--------------
B/-----------------10-10-10-9-10-12-10-----------------------------12-10-10-12-
G/-----------------------------------------------------------------------------
D/-----------------------------------------------------------------------------

E/-9-9-9-7-9-12-9-----------------------------10-10-10-9-10-9-10-10-9-------------
B/------------------10-10-10-9-10-12-10-9-----------------------------12-10-10-12-
G/---------------------------------------11---------------------------------------
D/--------------------------------------------------------------------------------

E/----------------12-9-------9---10-10-10-9-10-9-10--10-9-------------------------
B/-12-10-9-12-10-------12-12------------------------------12-10-10-12-------------
G/--------------------------------------------------------------------------------
D/--------------------------------------------------------------------------------

E|--7----5----4----------
B|-9----7----5------3-2--
G|-----------------------



A
Esos dias de placer
 F#m
esas noches de pasion
 D                                 E
son recuerdos que quedaron en mi alma.

 A
Fue despues de tu adios
F#m
mi mundo se derrumbo
D                                       E
y no encuentro algun amor que me de la calma.

D       E
Es por ti
C#m       F#m
que vivo asi
D                          E
recordando tus caricias y palabras.

D      E
Yo no se
C#m   F#m
si podre
D                    E
arrancar este dolor mi corazon desmaya
               A
pues aun te extraña.

 A
Cuando quiero descansar
 F#m
en mis sueños llegas tu
 D                                E
cuando quiero yo acercarme tu te alejas.

A
Me despierto estoy de pie
F#m
me siento desfalleser
D                                E
y mi llanto se desliza entre mis palmas.

D     E
Yo no se
C#m       F#m
que voy hacer
D                                         E
duele mucho el cruel adios la ansiedad me mata.

D      E
Yo no se
C#m   F#m
si podre
D                           E
arrancar este dolor mi corazon desmaya
               A
pues aun te extraña
               F#m   D E A.
pues aun te extraña.
Calificar esta versión:
Aviso: Este fichero es trabajo propio de su transcriptor y representa su interpretación personal de la canción. El material contenido en esta página es para exclusivo uso privado, por lo que se prohibe su reproducción o retransmisión, así como su uso para fines comerciales.