Ataque De Caca, Los Mox! (tablatura)

Autor: sabeee | 39285 visualizaciones



-------------------------------------------------------|
-------------------------------------------------------|
-------------------------------------------------------|
77777777-420------777777-420------0-7777777-420--------|
55555555----420---555555---------0--5555555----420-----|
---------------320------------23------------------320--|


-------------------------|
-------------------------|
-------------------------|
777777-4-2-4-7-5-2-0-4-0-|
555555-------------------|
-------------------------|

          x4       
----------------|
----------------|
----------------|
----------------|
-77777-5-77777--|
-55555-3-55555--|

cuando creo que todo es normal...
--------------------------|
--------------------------|
--------------------------|
-7-------------7----------|
-5--5--9--7----5--5--9--7-|
----3--7--5-------3--7--5-|


-----------------------------------------------------------|
-----------------------------------------------------------|
-----------------------------------------------------------|
-----------------------------------------------------------|
-44-444-44-444-44-444-44-444---55-555-55-555-55-555-55-555-|
-22-222-22-222-22-222-22-222---33-333-33-333-33-333-33-333-|


-----------------------------------------------------------|
-----------------------------------------------------------|
-----------------------------------------------------------|
-----------------------------------------------------------|
-99-999-99-999-99-999-99-999---77-777-77-777-77-777-77-777-|
-77-777-77-777-77-777-77-777---55-555-55-555-55-555-55-555-|


-----------------------------------------------------------|
-----------------------------------------------------------|
-----------------------------------------------------------|
-----------------------------------------------------------|
-44-444-44-444-44-444-44-444---55-555-55-555-55-555-55-555-|
-22-222-22-222-22-222-22-222---33-333-33-333-33-333-33-333-|


--------------------------------------------------------|
--------------------------------------------------------|
--------------------------------------------------------|
--------------------------------------------------7-----|
-77-777-77-777-77-777-77-777-77-777-77-777-77-777-7-----|
-55-555-55-555-55-555-55-555-55-555-55-555-55-555-5-----|


------------------|
------------------|
------------------|
-7----------------|
-5-4-5-4-2--9-7-7-|
---2-3-2-0--7-5-5-|

solo
---------------------------------------------------------------|
-10--8-7--7-8-10-10/12--10---7---7-8--8-7-------8-8-7-7--------|
------------------------------------------7-9-----------9-9-7-7|
---------------------------------------------------------------|
---------------------------------------------------------------|
---------------------------------------------------------------|





Calificar esta versión:
Aviso: Este fichero es trabajo propio de su transcriptor y representa su interpretación personal de la canción. El material contenido en esta página es para exclusivo uso privado, por lo que se prohibe su reproducción o retransmisión, así como su uso para fines comerciales.