Cielos Enfrentados, Los Ladrones Sueltos (acordes)

Autor: deam | 32962 visualizaciones

aambmcdemg
Intro:

     G        D    Em      D       C    G   Am   D

e----3-5h7-|-5~--|-3~-|-2-3-2-0-|-0~--|---|----|---|
B----------|-----|----|---------|-----|---|----|---|
G----------|-----|----|---------|-----|---|----|---|
D----------|-----|----|---------|-----|---|----|---|
A----------|-----|----|---------|-----|---|----|---|
E----------|-----|----|---------|-----|---|----|---|

     G          D      Em      D       C    

e----3-5h7-|-5~-8h10-|-3~-|-2-3-2-0-|-0~--|-15s17~-|
B----------|---------|----|---------|-----|--------|
G----------|---------|----|---------|-----|--------|
D----------|---------|----|---------|-----|--------|
A----------|---------|----|---------|-----|--------|
E----------|---------|----|---------|-----|--------|


Verso 1:

 G            D             Em    D
Cielos enfrentados bajo el mismo sol,
 C            G       Am          D
hojas que se caen viajando en el viento.
 G           D           Em      D
Lágrima de lluvia limpia un corazón, 
 C                         D
para liberarlo de su sufrimiento.


Verso 2:

 G           D              Em    D
La noche me muestra tu infidelidad,
 C           G          Am        D
fotos en mis ojos congelando el tiempo.
G         D           Em   D
Una madrugada, te despertarás, 
 C                             D C   A     
para arrepentirte y estaremos lejos.


Coro:

     D            A        Bm
No quiero que me pidas perdón,
       G         D A  Bm           G     D
no me sirve tu amor, ya no soy tu dueño.
       A        
No me pidas perdón, 
       G         D A  Bm           G
no me sirve tu amor, ya no soy tu dueño.


Verso 3:

 G           D           Em     D
Calma de un oasis tengo sombra hoy,
 C            G           Am       D
nena luz de arena albergarán mis sueños. 
 G            D          Em    D
Sobre tu espejismo cabalgando voy,
 C                            D 
para mantenerte solo en el recuerdo.


Verso 4:

 G             D          Em      D
Cortaste mi espalda con una traición,
 C            G        Am     D
lengua envenenada saborea mi sangre.
 G             D            Em     D
Búscate otro cuerpo y otro corazón,
 C                                     D   C  A 
siempre insatisfecha, siempre tendrás hambre.


Coro:

     D            A        Bm
No quiero que me pidas perdón,
       G         D A  Bm           G     D
no me sirve tu amor, ya no soy tu dueño.
       A        
No me pidas perdón, 
       G         D A  Bm           G
no me sirve tu amor, ya no soy tu dueño.


Solo:

e-------------10-----------------------------------------------
B--12-12-12-10--12~--8-10-8-7-8~--7-8-7-5-7-8-7-5-7h8~--------8h10~10h12~--|
G---------------------------------------------------------------
D---------------------------------------------------------------
A---------------------------------------------------------------
E---------------------------------------------------------------

e-------10-8~--7h8p7h8p7-8s10~--|
B--8-10-------------------------|
G-------------------------------|
E-------------------------------|
A-------------------------------|
E-------------------------------|


Coro 2:

 D       A        Bm
  No me pidas perdón, 
         G         D A  Bm           G   
  no me sirve tu amor, ya no soy tu dueño.
 D       A        Bm
  No me pidas perdón, 
         G         D A  Bm           G
  no me sirve tu amor, ya no soy tu dueño.
 D       A        Bm         G
  No me pidas perdón [no me sirve], 
   D     A         Bm                 G
  no me sirve tu amor [ya no soy tu dueño].
       D            A        Bm
  No quiero que me pidas perdón,
         G         D A  Bm           G     D
  no me sirve tu amor, ya no soy tu dueño.

dedicada para midian elisa hasta catacamas olancho honduras C.A
Att_franklin santos

Comentarios del colaborador: lacuerda.net

Calificar esta versión:
Aviso: Este fichero es trabajo propio de su transcriptor y representa su interpretación personal de la canción. El material contenido en esta página es para exclusivo uso privado, por lo que se prohibe su reproducción o retransmisión, así como su uso para fines comerciales.