Por Que Eres Así, Los Iracundos (tablatura)

Autor: Anónimo | 17101 visualizaciones



intro:

e-----0-0-0---3--1--0--3--/---------1-0--------0--I
B-------------------------/--3-3-3----------3-----I

e-----0-0-0---3--1--0--3--/---------1-0-----------I
B-------------------------/--3-3-3----------3--1--I

e-------------------I
B---5---3---1-------I
G-------------------I
D-------------------I
A-------------------I
E---3---1---0-------I  RIFF


                      DO
Por qué suspiras, que piensas de mi
               SOL
Cuando te miro yo
                    REm
Por qué tus ojos me dicen que si
   SOL             DO
Si se muy bien que no.    RIFF

                    DO
Si mi consuelo es mirarte nomás
       DO7     FA
Para vivir por ti.
                     DO
Por qué me llamas y luego te vas,
     SOL               DO
Por qué eres así, por qué.   RIFF

           SOL              DO
Si tu no estás, la vida no puede ser,
    SOL             FA              DO
necesito tenerte conmigo, en el corazón


Si tú te vas, la vida no puede ser,
no es posible que tú seas así,
yo quiero vivir en ti.

solo

Si tu no estas, la vida no puede ser,
necesito tenerte conmigo,siempre en el corazón

Si tú te vas, la vida no puede ser,
no es posible que tú seas así,
yo quiero vivir en ti.

un abrazo para mis queridos iracundos
mi correo german100x100@hotmail.com





Calificar esta versión:
Aviso: Este fichero es trabajo propio de su transcriptor y representa su interpretación personal de la canción. El material contenido en esta página es para exclusivo uso privado, por lo que se prohibe su reproducción o retransmisión, así como su uso para fines comerciales.