Por Si Acaso, Los Huayra (tablatura)

Autor: Anónimo | 25238 visualizaciones

Introduccion: G


    G
E|----------7------5^7^5----------5------------------7-----5^7^5-----
B|------8-----8----------8----8-----8---8----8---8-----8----------8--
G|----7---7-----7-----------7---7-----7--------7---7-----7-----------
D|--5--------------------5-------------------5--------------------5--
A|-------------------------------------------------------------------
E|-------------------------------------------------------------------




                    G
Por si acaso mi amor
                  D/F#
Se te hielen los labios,
                 Am  C
No te olvides jamás
                 D
Que mi boca es verano…


                  G
Por si acaso mi amor
                 D/F#
Me asaltara la muerte,
              Am  C
Como vino se irá
                     D
Pues te di lo que quiere…


         G
Por si acaso mi amor
             Bm
Me perdiera de ti,
                 C
Los caminos que tome
                   D/F#
Han de ser con tu nombre


  Em D                     C    D
Amor...La distancia no existe
  Em  Bm                   C       D D7
Amor...No hay olvido que valga

          G     C
Ni menos un lugar
   D     B7    Em
Adonde no haya luz
  D   C       Bm     Am
Nacida de nuestro querer...
  D         G - D/F# -
Mi único sol


Punteo sobre: Em Bm C G D/F# Em Bm C D

                   G
Por si acaso mi amor
Bm
Me perdiera de ti
       C
Los caminos que tome
                   D
Han de ser con tu nombre.

  Em D                     C   D
Amor...La distancia no existe
   Em Bm                   C   D
Amor...No hay olvido que valga
         G      C
Ni menos un lugar
  D      B7        Em
Adonde no haya luz
   D    C       Bm      Am
Nacida de nuestro querer...
  D       G -D/F#-Em
Mi único sol...
  D    C       Bm      Am - Am/G
Nacida de nuestro querer...
  D/F#-D7       G
Mi único sol...




    G  D/F#   Am    C    D
E|--7---5-----5-----8----5-----
B|--8---5-----5-----5----7-----
G|--7---7-----5-----5----7-----
D|--5---4-----7-----5----0-----
A|-----------------------------
E|-----------------------------

Recomiendo hacer los acordes de ésta manera en el intro,
la primer estrofa,y en el final, cuando dice "Mi único sol",
en el G del final.En la toda la parte restante utilicen los
acordes normales.

Cualquier duda consulta o pedido, escriban a
matuaguilar@hotmail.com

Esta canción va dedicada a Betsi,
Te estoy extrañando mucho..
Saludos!
Calificar esta versión:
Aviso: Este fichero es trabajo propio de su transcriptor y representa su interpretación personal de la canción. El material contenido en esta página es para exclusivo uso privado, por lo que se prohibe su reproducción o retransmisión, así como su uso para fines comerciales.