La De Bermejo, Los Huayra (tablatura)

Autor: Anónimo | 39581 visualizaciones

Intro: RiFF - D - E - A - C#7 - F#m - Bm - F#m -

C#7 - F#m - C#7 - F#m - C#7 - F#m

Intro punteada:


E-------------------2--2/5-------------------
B---------------2------4/7-7--9h10p9-9h10-12-
G-------------2------------7--9------9-------
D-----------4--------------------------------
A---------4----------------------------------
E-2-4-5-2------------------------------------

E--------12-10--9p8--9----9---7----------
B---9-12-------10p9-10-10-------10-9-7-6-
G-9--------------------------------------
D----------------------------------------
A----------------------------------------
E----------------------------------------

E-----4--4/7-5-4--9------9--10---9-8--9---
B---6----6/9-7-5-10---10----12--10-9--10--
G-6-----------------11--------------------
D-----------------------------------------
A-----------------------------------------
E-----------------------------------------

E-7h9p7-5-7-5-4-5----------4---2----4---2---
B-9-----7-9-7-5-7--------6-----2----6---2---
G----------------------4-------2----4---2---
D--------------------6---------4----6---4---
A------------------4-----------4----4---4---
E------------------------------2----4---2---



   F#m      E7  A
Ay bermejo rio hermano
       D   E7     A
compañero de mis dias
                B    A
de mis largas soledades
          D    G#7   C#7
de mi tiempo abrazador
          D       E7   A
traigo el sol en tus orillas
                C#7         F#m
y de tu tierra pintado el corazon


F#m           E7     A
Si el remanso lleva lejos
     D        E7     A
las angustias y las penas
            B     A
por oran o por laquena
      D    G#7    C#7
va mi sueño pescador
         D       E7   A
suelto al aire mi aparejo
                    C#7          F#m
y en tu reflejo la suerte de los dos


Estribillo:

Bm                  E
No me dejes sin tu noche
       D      E7    A
de guitarra amanecida
             D          E7    A
que hasta el sol de un nuevo dia
            B       A      C#7  F#m
quiero dejarte mis versos y mi voz
               D        E7      A
y ser el cause nuevo de tu camino
             B        A    C#7  F#m
donde me lleve el destino de cantor


Intro: RiFF - D - E - A - C#7 - F#m - Bm - F#m -

C#7 - F#m - C#7 - F#m - C#7 - F#m

Intro punteada:


E-------------------2--2/5-------------------
B---------------2------4/7-7--9h10p9-9h10-12-
G-------------2------------7--9------9-------
D-----------4--------------------------------
A---------4----------------------------------
E-2-4-5-2------------------------------------

E--------12-10--9p8--9----9---7----------
B---9-12-------10p9-10-10-------10-9-7-6-
G-9--------------------------------------
D----------------------------------------
A----------------------------------------
E----------------------------------------

E-----4--4/7-5-4--9------9--10---9-8--9---
B---6----6/9-7-5-10---10----12--10-9--10--
G-6-----------------11--------------------
D-----------------------------------------
A-----------------------------------------
E-----------------------------------------

E-7h9p7-5-7-5-4-5----------4---2----4---2---
B-9-----7-9-7-5-7--------6-----2----6---2---
G----------------------4-------2----4---2---
D--------------------6---------4----6---4---
A------------------4-----------4----4---4---
E------------------------------2----4---2---


F#m          E7    A
Padre santo fronterizo
       D      E7    A
del pasante agradecido
                 B      A
que en tus aguas ha venido
         D   G#7  C#7
a encontrar una ilusion
         D     E7        A
por los que nunca han tenido
                             C#7    F#m
por lo que solo en tus brazos encontro



F#m        E7      A
Florecidos lapachales
    D     E7    A
aromando tu recuerdo
           B     A
una zamba sin pañuelo
      D    G#7  C#7
un olvido sin adios
       D      E7    A
y los versos sin regreso
                  C#7         F# 
bajo la luna de aquel primer amor


Estribillo:

Bm                  E
No me dejes sin tu noche
       D      E7    A
de guitarra amanecida
             D          E7    A
que hasta el sol de un nuevo dia
            B       A      C#7  F#m
quiero dejarte mis versos y mi voz
       Pausa en D            A
y ser el cause nuevo de tu camino
             B        A    C#7  F#m
donde me lleve el destino de cantor


Riff
E-------------------2-
B---------------2-----
G-------------2-------
D-----------4---------
A---------4-----------
E-2-4-5-2-------------



BUENO ESPERO Q LES HAYA GUSTADO

CUALQUIER DUDA O SUGERENCIA A MI CORREO

DESDE SALTA CAPITAL - ARGENTINA

SE DESPIDE PABLEEM
Calificar esta versión:
Aviso: Este fichero es trabajo propio de su transcriptor y representa su interpretación personal de la canción. El material contenido en esta página es para exclusivo uso privado, por lo que se prohibe su reproducción o retransmisión, así como su uso para fines comerciales.