Crimen Del Autocine, Los Gardelitos (tablatura)

Autor: Anónimo | 38079 visualizaciones

Sintáxis:
~~  : Dejar sonar (No es vibrato)
 h  : Hammer on - Martilleo
 p  :  Pull off - Ligadura
(3): Nota o acorde opcional (se puede tocar o no, no cambia)
 B  : Bend - Estirar
 br : Bend/Release - Estirar y volver a la nota
 /  : Slide - Deslizar

Intro

   A5                                            F5
e|-----------------------|----------|----------|-------|
B|-----------------------|----------|----------|-------|
G|-2~~~------------------|----------|----------|-------|
D|-2~~~------------------|----------|----------|--3~~~-|  2 Veces + A5
A|-0~~~-0000000000000000-|-02030503-|-02030503-|--3~~~-|
E|-----------------------|----------|----------|--1~~~-|

La cantidad de 0 (ceros) no es la exacta.
Refiere a un movimiento rápido de púa (notar que suenan 2 guitarras).



G5    A5   G5          A5
Esa mujer, libre y sensual
 F5        G5   F5      G5
me hace sentir fuera de mi
G5      A5   G5        A5
Su corazón, fuego y temor
 F5       G5       F5         G5
y en mi cabeza un gran descontrol


Estribillo: No es exacto, pero suena

        Am               F               G                Am
e|---------------------|---------------|----------------|----------------|
B|--------0h1----1h0---|---0h1---1h0---|---------1h0----|---0h1----1h0---|
G|------2------2-----2-|-------2-----2-|-0-2h4-0------0-|-2-----2------2-|
D|---------------------|-3-------------|----------------|----------------|
A|---------------------|---------------|----------------|----------------|
E|---------------------|---------------|----------------|----------------|
   Oh no!             Oh no!         Su cuerpo es un enigma de Dios


       F               G                Am
e|-------------------|----------------|----------|
B|-------0h1---1h0---|---------1h0----|---0h1----|
G|-----------2-----2-|-0-2h4-0------0-|-2-----2--| Engancha rápido con 2da
D|-----3-------------|----------------|----------| parte de estribillo
A|-------------------|----------------|----------|
E|-------------------|----------------|----------|
   Oh no!         Su sexo está quemando mi piel



            F5           G5          A5
e|------------|------------|-----------|----------------|
B|------------|------------|-----------|----------------|
G|------------|------------|---------2-|----------------|
D|----------3-|----------5-|---------2-|----------------|
A|---3-2-0--3-|---3-2-0--5-|-2h3h2---0-|-00-00-00-00-00-|
E|----------1-|----------3-|-------3---|----------------|
   Churuchuchu churuchuchu  churuchuchu

           F5           G5          A5
e|------------|------------|-----------|------------------------------|
B|------------|------------|-----------|------------------------------|
G|------------|------------|---------2-|------------------------------|
D|----------3-|----------5-|---------2-|-5h7p5---5--------------------|
A|---3-2-0--3-|---3-2-0--5-|-2h3h2---0-|-------7----7-5h7p5/3--5p3----|
E|----------1-|----------3-|-------3---|---------------------------5--|
   Churuchuchu churuchuchu  churuchuchu



Puente:

   D5     C5  A5 G5    F5          G5   A5
e|-------------------|---------------------|
B|-------------------|---------------------|
G|--7-7-7--5--2------|---------------------|
D|--7-7-7--5--2--5~~-|-3-3-3-3-3-3--(5)-7-| 2 veces
A|--5-5-5--3--0--5~~-|-3-3-3-3-3-3--(5)-7-|
E|---------------3~~-|-0h1-1-0h1-1--(3)-5-|


Intro (El primer A5 es el que engancha desde el Puente)


Solo: (El acompañamiento es el mismo que durante las estrofas)

e|------------------------------------------------------------------------
B|-----5~~----------------------------------------------------------------
G|-----5~~------5-7-7b-7b-7br--5p2p0--------4-4h5~~p4----4h5p4----4h5p4---
D|-5h7-----7-------------------------/5-7-------------5--------5--------5-
A|------------------------------------------------------------------------
E|------------------------------------------------------------------------


e|------------------------5----------------------------|-----------------|
B|---------------------------8p5-----------------------|--------------8~-|
G|-4h5-7-5------5-7--5-7b---------7br-5---7b-5---------|---------7-9-----|
D|---------5/7--------------------------7------7-5h7-5-|-7-5-7/9---------|
A|-----------------------------------------------------|-----------------|
E|-----------------------------------------------------|-----------------|


Oh no! Oh no!
Su cuerpo es un enigma de Dios
Oh no! Su sexo está quemando mi piel

Churuchuchu churuchuchu churuchuchu
Churuchuchu churuchuchu churuchuchu

F5     G5 A5  G5
No, no puede ser
F5     G5 A5  G5
No, no puede ser
F5     G5 A5  G5
No, no puede ser
     F5           Intro (termina en A5)
como es... el amoor
Calificar esta versión:
Aviso: Este fichero es trabajo propio de su transcriptor y representa su interpretación personal de la canción. El material contenido en esta página es para exclusivo uso privado, por lo que se prohibe su reproducción o retransmisión, así como su uso para fines comerciales.