Cobarde Para Amar(version Punk), Los Gardelitos (tablatura)

Autor: Anónimo | 17518 visualizaciones

Aqui pega la canción!
                     cobarde para amar(los gardelitos)


ACORDES:> G5 B5 C5 D5 A5 G5 G#5

ESTA ES LA VERSION PUNK

INTRO 1

... ...  C5 D5 (PALM MUTE)


1|------------------------------------------
2|-----------10--------12-------13--12------
3|-----12---------12-------12---------------   X 6
4|------------------------------------------
5|------------------------------------------
6|------------------------------------------

1|------------------------------------------
2|-----------10-12h10--------10--12---------
3|-----12-----------------12----------------
4|------------------------------------------
5|------------------------------------------
6|------------------------------------------


1|------------------------------------------
2|-----------10--------12-------13--12------
3|-----12---------12-------12---------------  X 6
4|------------------------------------------
5|------------------------------------------
6|------------------------------------------


1|------------------------------------------
2|-----------10h12h10--------10-------------
3|-----12-----------------12--------12------
4|------------------------------------------
5|------------------------------------------
6|------------------------------------------



INTRO 2


1|------------------------------------------
2|------------------------------------------
3|---0--2---0--4---0--5-4-------------------  X 6
4|------------------------------------------
5|------------------------------------------
6|------------------------------------------


1|------------------------------------------
2|------------------------------------------
3|-----0--2--2h4h2--0--2--4-----------------
4|------------------------------------------
5|------------------------------------------
6|------------------------------------------


1|------------------------------------------
2|------------------------------------------
3|---0--2---0--4---0--5-4-------------------  X 6
4|------------------------------------------
5|------------------------------------------
6|------------------------------------------

1|------------------------------------------
2|------------------------------------------
3|-----0--2--2h4h2--0--2--0-----------------
4|------------------------------------------
5|------------------------------------------
6|------------------------------------------




G5                 B5
Entonces dime que puedo hacer por vos
C5                          D5
Que estás tan solo que no quieres ver el sol
G5               B5
Tan alejado del mundo te sentís
C5                  D5
Que dejás sola a la gente que te espera
G5                 B5
Seguís buscando en vano una razón
C5              D5
Pero te alejas de tu corazón

ESTRIBILLO

A5                 G5               G5 G5#
Eres un hombre tan simple como todos
A5                 G5           G5 G5#
Pero sumamente cobarde para amar
A5                 G5               G5 G5#
Eres un hombre tan simple como todos
A5                 G5          G5 G5#
Pero sumamente cobarde para amar


C5     D5         G5
lalalala  lalalalala   X 2


G5                   B5
Cuando eras joven soñastes con viajar
C5                      D5
el tiempo fue pasando,y aun estas aca
G5                      B5
todos tus sueños los dejaste muy atras
C5                      D5
todas las cosas que querias de verdad
G5                 B5
Escucha amigo un dia partire
C5                  D5
y estaras solo.tan solo como ayer

ESTRIBILLO

A5                 G5               G5 G5#
Eres un hombre tan simple como todos
A5                 G5           G5 G5#
Pero sumamente cobarde para amar
A5                 G5               G5 G5#
Eres un hombre tan simple como todos
A5                 G5          G5 G5#
Pero sumamente cobarde para amar


C5     D5         G5
lalalala  lalalalala   X 2


G5                B5
Y ella sigue esperando tu cancion
C5                      D5
sentada en el camino,mirando su reloj
G5                    B5
y tal vez nunca te atreveras a hablarle
C5                D5
tienes miedo de ser un tonto mas
G5                  B5
Hay si pudieras romper ese cristal
C5                  D5
tocar su cuerpo y amarla de verdad


A5                 G5               G5 G5#
Eres un hombre tan simple como todos
A5                 G5           G5 G5#
Pero sumamente cobarde para amar
A5                 G5               G5 G5#
Eres un hombre tan simple como todos
A5                 G5          G5 G5#
Pero sumamente cobarde para amar


C5     D5         G5
lalalala  lalalalala   X 2


FINAL

C5     D5         G5
lalalala  lalalalala
C5     D5          C5    D5        G5
lalalala  lalalala lalalala  lalalala  RIFF


RIFF

6|----3-3----------------------------------
5|---------2-2-3-3-4-4-5-5-7-7-8-8-9-9-----
4|-----------------------------------------
3|-----------------------------------------
2|-----------------------------------------
1|-----------------------------------------



C5     D5          C5    D5        G5
lalalala  lalalala lalalala  lalalala

Comentarios del colaborador: wenas:soy piru queria decie q este es un temaso de los gardelitos es uno de los q mas me gusta bueno me despido, pero antes se lo quiero dedicar a mi hermano q es una masa y a todas las stonas jeje les dejo mi msn chauu aguante el ROCK AND ROLL A FULL besostones...

Calificar esta versión:
Aviso: Este fichero es trabajo propio de su transcriptor y representa su interpretación personal de la canción. El material contenido en esta página es para exclusivo uso privado, por lo que se prohibe su reproducción o retransmisión, así como su uso para fines comerciales.