Ciudad Descalza, Los Gardelitos (tablatura)

Autor: Anónimo | 34808 visualizaciones

Intro:

tocando despacito:

 	 Gmaj7 Cadd9 E|-10-10s12-10--------------------- ---7| 
        	     B|------------12-10--10-12-10------ --7-|   
        	     G|-----------------12--------12-11- -7--|   
	     	     D|--------------------------------- 9---|

después: 

Gmaj7 Cadd9 Gmaj7 (x2)              
 

Gmaj7
Cuando la ciudad descalza deja de mirar el día,
cuando todo está dormido y la calle ya no brilla
Cadd9			 Gmaj
esos hombres van a ver a dios

Toda esta selva virgen puede seducir tu sueños
debes dar tu cuerpo tibio a los edificios fríos
Quiero que al final estés aquí, hablándome

Estribillo:

A7m Cadd9 Gmaj7 (x2)
(laralalala...)

(SAXO)

GUITARRA:(base con las notas del estribillo)
E|------------------------------------------------------------------------|
B|-----------------------------------------7h8-7-8-10-8-7-----------------| 
G|----------------------------------------7--------------7-7h9-7---7------| 
D|----5-7(8)p7h5-5h7-7-----5-7-(8)p7h5-7s9----------------------7h9-9-7-9-| 
A|-5-7----------7-------5-7-----------7-----------------------------------|   

E|----------------------------------------------10-13s15-14-12---|   
B|----8-10(11)h10-8-7h9-9----8-10(11)p10-8-10s12--------------12-|   
G|-7-9-------------9------7-9-------------9----------------------|   
D|---------------------------------------------------------------|   
A|---------------------------------------------------------------|   


	()= los números en paréntesis no se tocan, solo se
	    presionan con el dedo para que suenen ligeramente
	h = Golpear
	p = Pellizcar hacia afuera
	s = Arrastrar


Son las tres de la mañana, caminando por Corrientes
Muchos ojos han brillado, sin embargo sos el mismo
Otra vez el sol murió al partir
En la intensidad del tráfico, el temor heló tus huesos
Has buscado en tantas calles, volverás a ser el mismo
Alguien preguntó si iba a nacer el sol 

Estribillo:

A7m Cadd9 Gmaj7 (x2)
(laralalala...)

					*NOTAS*

			 _Gmaj7 _     _Cadd9 _      _A7m ___
			 ______/     ______/      ______/
			7 ©||©©©     8 ||||©|      5 ©|©©©©
			  ||||||       |||©||        ||||||
			  ||©|||       ||©||©        |©||||
			  |©||||       ||||||        ||||||
			  ||||||       ¯¯¯¯¯¯        ¯¯¯¯¯¯ 
			  ¯¯¯¯¯¯

Fuente original: LaCuerda
Colaborador original: Los Pibes De Pque. Chacabuco [el_cazador_@hotmail.com]
Calificar esta versión:
Aviso: Este fichero es trabajo propio de su transcriptor y representa su interpretación personal de la canción. El material contenido en esta página es para exclusivo uso privado, por lo que se prohibe su reproducción o retransmisión, así como su uso para fines comerciales.