Calles Calientes, Los Gardelitos (tablatura)

Autor: Anónimo | 42680 visualizaciones

Intro:

[Riff]
G|--------------------------------5----------
D|--7-7--5-3--3-3-3-3-3-3---7-5-3-5-5-7------
A|--7-7--5-3--3-3-3-3-3-3---7-5-3-3-5-7------
E|--5-5--3-1--1-1-1-1-1-1---5-3-1---3-5------
    A    G F                A G F C G A

(Riff)

A5     G5 F5        A5 G5 F5 C5 G5 A5
Calles calientes
terror en la gente
malas noticias
la muerte es primicia hoy
Blancas columnas
dibujan tu espejo
te sientes lejos
de mi corazón...
Tus ojos muertos
la luna está oscura
ya no me banco más
tanta locura

e|--------------------------------------------------------------
B|--------------------------------------------------------------
G|-----------------------------------4--5-5--7-10-10-12-10-9-10-
D|--7-7--5--7-7--5--3-3--5-3----7-7--4--5-5--7-10-10-12-10-9-10-
A|--7-7--5--7-7--5--3-3--5-3----7-7--2--3-3--5-8--8--10-8--7-8--
E|--5-5--3--5-5--3--1-1--3-1----5-5-----------------------------

C5
No me dejes solo
        G5
no lo puedo resistir
C5
siento que las sombras
       G5
se apoderarán de mí
F5
Tienes que ayudarme
              G5
a cambiar el mundo
F5
déjame ayudarte
a cambiar este
G5
mundo de mierda
               F5                G5
oh! no no no noooooooooooooooouuooo

Base del punteo:
G|--------------------------------5----------
D|--7-7--5-3--3-3-3-3-3-3---7-5-3-5-5-7------ X4
A|--7-7--5-3--3-3-3-3-3-3---7-5-3-3-5-7------
E|--5-5--3-1--1-1-1-1-1-1---5-3-1---3-5------

G|-----------------------------------4--5-5--7-10-10-12-10-9-10-
D|--7-7--5--7-7--5--3-3--5-3----7-7--4--5-5--7-10-10-12-10-9-10-
A|--7-7--5--7-7--5--3-3--5-3----7-7--2--3-3--5-8--8--10-8--7-8--
E|--5-5--3--5-5--3--1-1--3-1----5-5-----------------------------

C5
No me dejes solo
        G5
no lo puedo resistir
C5
siento que las sombras
       G5
se apoderarán de mí
F5
Tienes que ayudarme
              G5
a cambiar el mundo
F5
déjame ayudarte
a cambiar este
G5
mundo de mierda
               F5                G5
oh! no no no nooooo           oooooo
F5
Tienes que ayudarme
              G5
a cambiar el mundo
F5
déjame ayudarte
a cambiar este
G5
mundo de mierda
               F5                G5
oh! no no no nooooooooooooooouuooooooooo

e|-------------------------------------------
B|-------------------------------------------
G|--------------------------------5----------
D|--7-7--5-3--3-3-3-3-3-3---7-5-3-5-5-7------  X2
A|--7-7--5-3--3-3-3-3-3-3---7-5-3-3-5-7------
E|--5-5--3-1--1-1-1-1-1-1---5-3-1---3-5------
Calificar esta versión:
Aviso: Este fichero es trabajo propio de su transcriptor y representa su interpretación personal de la canción. El material contenido en esta página es para exclusivo uso privado, por lo que se prohibe su reproducción o retransmisión, así como su uso para fines comerciales.