Tú, Los Del Fuego (tablatura)

Autor: Anónimo | 18235 visualizaciones

-10-10-10-10--9-9--7-7---------
------------------------7------
--------------------------7----
-------------------------------
-------------------------------
-------------------------------

-----7--------------------------------
-7-7---10-8-7--7/8-8-8--7-7---7/8-----
----------------------------9---------
--------------------------------------
--------------------------------------
--------------------------------------

-12-12-12-12--10-10--9-9--------
-------------------------10-----
----------------------------9---
--------------------------------
--------------------------------
--------------------------------

---------7--------------------
---7-7-7----------7-----------
--7-----------7------7--------
-9----------9---9------9------
------------------------------
------------------------------

-----------------------------------------
--------------8-10-10/12-12-12-10-12-10--
-7h9--9-9-9-9----------------------------
-----------------------------------------
-----------------------------------------
-----------------------------------------

-------------------------------------
-12-12-12-12-15-17-17/19-19-19-17-19-
-------------------------------------
-------------------------------------
-------------------------------------
-------------------------------------

------------------------------
--12h14-12-12-11-11---7-------
-----------------------7------
------------------------------
------------------------------
------------------------------

---------7--------------------
---7-7-7----------7-----------
--7-----------7------7--------
-9----------9---9------9------
------------------------------
------------------------------

bueno eso fue todo!! :D
em.. agrega mi msn si keres!!
soypablitu@live.com.ar
Calificar esta versión:
Aviso: Este fichero es trabajo propio de su transcriptor y representa su interpretación personal de la canción. El material contenido en esta página es para exclusivo uso privado, por lo que se prohibe su reproducción o retransmisión, así como su uso para fines comerciales.