Angel, Los Del Fuego (tablatura)

Autor: Anónimo | 37648 visualizaciones

bueno nose, este es mi primer tablatura que hago y.. nose para mi
esta cansion suena bien.. espero que les guste.

-9h10-10-9-------7-9-10-9-7------5-7-8-7-5------------
-----------12---------------9--------------8-----8----
--------------11--------------10-------------7-7------
------------------------------------------------------
------------------------------------------------------
------------------------------------------------------

-14-12-10-9--10-9------------9-10-9-12----------7-8-7-10--------
------------------12-----12------------10----10----------8----8-
---------------------11-------------------9----------------7-7--
----------------------------------------------------------------
----------------------------------------------------------------
----------------------------------------------------------------

-14-12-10----15----14-12-10-------------14-12-10----15-
----------12----------------12-10-10-------------12----
-------------------------------------------------------
-------------------------------------------------------
-------------------------------------------------------
-------------------------------------------------------

-------------10----------10--
----------10----10----10-----
-11s12-12----------11--------
-----------------------------
-----------------------------
-----------------------------

---------------------------------------------------------------
---------------------------------------------------------------
-11-9-7------11-9-7-------11-9-7---------------------7-------7-
--------9-12--------9-7-7--------9-12--------------7---7---7---
-------------------------------------------9s10-10-------9-----
---------------------------------------------------------------


bueno nada eso fue todo , aguante la cumbia santafesina!!! =D
despues , voy a pasar mas de los del fuego , los leales ,algo de los cadiz
y.. nose otros mas! bueno si queres agrega mi msn!!
(pablo_soloentendidos@hotmail.com)
Calificar esta versión:
Aviso: Este fichero es trabajo propio de su transcriptor y representa su interpretación personal de la canción. El material contenido en esta página es para exclusivo uso privado, por lo que se prohibe su reproducción o retransmisión, así como su uso para fines comerciales.