Amor Verdadero, Los Del Fuego (tablatura)

Autor: Anónimo | 25581 visualizaciones

----------------------9-9-11-9--12-----------
----------------------9---------12---10-12-9-
----------------------9---------11-----------
-------1-2-2h4-2-----------------------------
-2-2-4---------------------------------------
---------------------------------------------

--------------------------------------
---10-9-7-9-7-5-7-5-------------------
-6------------------7--------4-6-6/8--
----------------------9----4----------
--------------------------------------
--------------------------------------

---------------------------------------
-----12-10-9h10h9-7-9/10---------------
---------------------------------------
--11---------------------11------------
---------------------------------------
---------------------------------------

---------------------------------------
---------------------------------------
---12-10-9h10h9-7-9------10-9-7-9-7----
---------------------------------------
-11-----------------9--9---------------
---------------------------------------

---------------------------------------
--7-5-4--4-5/7-------------------------
--7-5-4--4-5/7-------------------------
---------------------------------------
---------------------------------------
---------------------------------------


bueno eso  es hasta lo ke me salio :P
bueno em.. mi msn era(pablo_soloentendidos@hot..)
pero ahora lo cambie... y.. tengo uno nuevo
es soypablitu@live.com.ar agrega si keres e..
despues voy a subir un par mas ke me salieron
y.. bue despues subo! chauuu espero ke les guste!
Calificar esta versión:
Aviso: Este fichero es trabajo propio de su transcriptor y representa su interpretación personal de la canción. El material contenido en esta página es para exclusivo uso privado, por lo que se prohibe su reproducción o retransmisión, así como su uso para fines comerciales.