Solo/una Cancion, Los De Adentro (tablatura)

Autor: Anónimo | 16165 visualizaciones

Hola, esta es el 100% de UNA CANCIÓN o jala le guste, pues me demore mucho  
sacándola no como otros q' sacan la intro y el solo todo MALO. soy d Cali/Colombia 
                              ***INTRO*** 
             DO             SOL             LAm               FA
E--------0- ---------0----- ---------3/5-3- ----------------- ---------1---
B--1--3---- ---1h2h1---1--- -----3---3/5-3- -0h2---------0h2^ -----1-------
G---------- 0------------0- ---0---0------- -----2-----2----- ---2---2-----
D---------- --------------- --------------- ---------2------- -------------
A--0--2--3- --------------- --------------- -0-----0--------- -------------
E---------- --------------- -3------------- ----------------- -1-----------

             DO                SOL           LAm             FA 
E--------0- -----0h3-3---3--- -------3----- -------0------- -------1------
B--1--3---- ---------------1- -----3---3--- -----1---1---1- -----1---1---1
G---------- ---0-------0----- ---0-------0- ---2-------2--- ---2-------2--
D---------- ----------------- ------------- --------------- --------------
A--0--2--3- ----------------- ------------- -0------------- --------------
E---------- -0--------------- -3----------- --------------- -1------------

DO  (este pedazo es lento)
E------------------------
B---1----1-3-2--1---3----
G-----0-----------2------
D------------------------/
A-3---------------------/-
E----------------------/--
    hay unas que llegan al alma que te hacen mover las palmas

     DO               SOL             LAm             FA 
E--0-------0----- --3-----3----- --0-------0----- --1-----1-----------
B--1---1h3---1--- --3---3---3--- --1---0h1---1--- --1---1---1---------
G----0---------0- ----0-------0- ----2---------2- ----2-------2-------
D---------------- -------------- ---------------- --------------------
A--3------------- -------------- --0------------- --------------------
E---------------- --3----------- ---------------- --3-----------------

otras  que  llegan     al         corazón W00 hoo-

     DO               SOL            LAm              FA 
E--0-------0----- --3-----3----- --0-------0----- --1-----1/3-1-------
B--1---1h3---1--- --3---3---3--- --1---0h1---1--- --1---1-1/3-1-------
G----0---------0- ----0-------0- ----2---------2- ----2---------------
D---------------- -------------- ---------------- --------------------
A--3------------- -------------- --0------------- --------------------
E---------------- --3----------- ---------------- --3-----------------

 Hay unas que se necesitan Otras que nunca se olvidan

DO                    SOL            LAm              FA 
E--0-------0----- --3-----3----- --0-------0----- --1-----1-----------
B--1---1h3---1--- --3---3---3--- --1---0h1---1--- --1---1---1---------
G----0---------0- ----0-------0- ----2---------2- ----2-------2-------
D---------------- -------------- ---------------- --------------------
A--3------------- -------------- --0------------- --------------------
E---------------- --3----------- ---------------- --3-----------------

Que   te    hacen    despertar    pasión [ohoh] -   'ASÍ SUCESIVAMENTE'

DO                  SOL               LAm           FA 
E--0-------0----- --3-----3----- --0-------0----- --1-----1-----------
B--1---1h3---1--- --3---3---3--- --1---0h1---1--- --1---1---1---------
G----0---------0- ----0-------0- ----2---------2- ----2-------2-------
D---------------- -------------- ---------------- --------------------
A--3------------- -------------- --0------------- --------------------
E---------------- --3----------- ---------------- --3-----------------
Oyendo una canción para ti para mi y que nos llegue al pensamiento para 
vivir y expresar todo lo que yo siento hoo quiero tenerte te dedico..... 
(antes de cantar toca un circulo de: C=DO G=SOL Am=LAm  F=FA 
NOTAS:            DO   SOL   LAm   FA                                         
PRE ARPEGIO:   E|----0------3-----0----1/3
               B|----1------3-----1----1/3                     
                      ***ARPEGIO*** 
DO             SOL       LAm           FA
todo comenzó con un  baso  de un trago caro y escaso 
-0----------------3---------1---------------1----
-1----------------3---------0---------------1----
-------------------------------------------------
DO          SOL        LAm      FA 
que me subió la desolación woo hooo
-0----------------3---------1---------------1----
-1----------------3---------0---------------1----
-------------------------------------------------
DO        SOL          LAm            FA
Oyendo al grupo del bar  tocar mi favorita
-0----------------3------1------------1----------
-1----------------3------0------------1----------
-------------------------------------------------
DO          SOL         LAm         FA 
Se me subió la desesperación 0hho
-----0---------------3-------1----1--------------
-----1---------------3-------0----1--------------
-------------------------------------------------
DO                  SOL    LAm
Oyendo una canción para ti para mi
-0-----------------3-------1---------------------
-1-----------------3-------0---------------------
-------------------------------------------------
          FA              DO 
Y que nos llegue al pensamiento
-0---------3---------------1---------------------
-1---------3---------------0---------------------
------------------------------------------------- 
    SOL           LAm         FA             DO
Para vivir y expresar todo lo que yo siento  Ho..
-----------0---------3-----1-------------1-----0-
-----------1---------3-----0-------------1-----0-
-------------------------------------------------
   SOL     LAm   FA
Quiero tenerte , te dedico esta canción
-0--------------3----------------1----------0----
-1--------------3----------------0----------0----
-------------------------------------------------
en todo el solo el acompañamiento tiene que hacer cuatro vueltas de: C,G,Am,F
-Nota: en la 2da vuelta en la nota sol el charrasqueo son 6 veces hacia abajo
                            *SOLO*
E|------------------------------------------5h7-5-------8-------------| 
B|-3/5--3-1-3--1h3p1h0----------------5-6-8-------6-5-6---6-5---------|
G|----------------------------4-5-7-7---------------------------------|
D|----------------------7-5-7-----------------------------------------|
A|--------------------------------------------------------------------|
E|--------------------------------------------------------------------|

E|-10h12-8h10-10-10-10-12-13-10--8---------------------------------------|
B|---------------12-12-13-15-12-10--10/12-12-12-10-9-10-10-10-12-13-12-8-|
G|-----------------------------------------------------------------------|
D|-----------------------------------------------------------------------|
A|-----------------------------------------------------------------------|
E|-----------------------------------------------------------------------|

El pedazo que esta en paréntesis se toca rapidísimo lo demás se toca despacio  
E|--10-10h12-8h10-10---------------------------5-7-5------------------| 
B|---------------------------------------5-6-8-------6----------------|
G|---------------------  (------4-5-7-7-)  ------------7-5-6----------|
D|---------------------  (-7-5-7--------)  ---------------------------|
A|--------------------------------------------------------------------|
E|--------------------------------------------------------------------|

E|-----------------------------------------------5-7-7-5-------8------| 
B|-3/5--3-1-3--1h3p1h0-----5h7-------------5-6-8---------6-5-6---6-5--|
G|-----------------------------5h7-4-5-7-7----------------------------|
D|--------------------------------------------------------------------|
A|--------------------------------------------------------------------|
E|--------------------------------------------------------------------|
LAm           SOL   FA           SOL
Perdiendo el tiempo  pensando en ti
LAm         SOL     FA          SOL  
Yo se que nunca vas a regresar a mi...

RE          LA        SIm
Una canción para ti para mi
          SOL               RE 
Y que nos llegue al pensamiento
       LA        SIm         SOL
Para vivir y expresar todo lo que yo siento
RE      LA           SIm            SOL x2
Hoho....oh............oh.............oh...........
       RE...
Una canción
                           *PUNTEO FINAL*
1|-------2/3/2------- --------3-2------- --------2/3/2-------     
2|------3------3---3- ------3-----3---3- ------3-------3---3-     
3|---2-----------2--- ----0---------0--- ----0-----------0---
4|-0----------------- ------------------ --------------------      
5|------------------- --3--------------- --2-----------------
1|--------3-2----- --12R-- --------0h2-2-2/4-2---- --7R------
2|------3-----3--- --12R-- ------3-------3/5---3-- --7R------
3|----0---------0- ------- ----2------------------ ----------
4|---------------- ------- ----------------------- ----------
5|--1------------- ------- ----------------------- ----R: Rozar
Calificar esta versión:
Aviso: Este fichero es trabajo propio de su transcriptor y representa su interpretación personal de la canción. El material contenido en esta página es para exclusivo uso privado, por lo que se prohibe su reproducción o retransmisión, así como su uso para fines comerciales.