Sólo En Mí, Los De Adentro (tablatura)

Autor: Anónimo | 43911 visualizaciones

HOLA QUE TAL MI NOMBRE ES YONATHAN
Y  PS ESTA ES LA PRIMERA CANCION QUE SUBO
A LA CUERDA CREO QUE ESTA BN  CHIDA....
ESCUCHENLA BN PARA QUE LA PUEDAN
TOCAR BIEN.......♪PS ESTA ROLA VA DEDICADA PARA LAURA...
TE QUIERO RESTO NIÑA LINDA.....



InTroOo

e------------------3---3/5-3-------
B-----------------3-3--3/5-3-------
G---2---2-2------2---2-------------
D-----0------0---------------------
A---------------5------------------
E---------3------------------------

e--------------------------0-------
B------------------------0---------
G---2---2-2------------0-----------
D-----0------0---------------------
A----------------------------------
E---------3-----3-2-0--------------





D          G        A       Bm
Sientate aquí, escuchame decir
e------------------3---3/5-3-------
B-----------------3-3--3/5-3-------
G---2---2-2------2---2-------------
D-----0------0---------------------
A---------------5------------------
E---------3------------------------

D       G             Bm       A
Todo y más de lo que puedo sentir

e--------------------------0-------
B------------------------0---------
G---2---2-2------------0-----------
D-----0------0---------------------
A----------------------------------
E---------3-----3-2-0--------------

D          G      A       Bm
Siéntate aquí, refleja en mí
e------------------3---3/5-3-------
B-----------------3-3--3/5-3-------
G---2---2-2------2---2-------------
D-----0------0---------------------
A---------------5------------------
E---------3------------------------

D         G        Bm      A
Todo aquello que dices sentir

e--------------------------0-------
B------------------------0---------
G---2---2-2------------0-----------
D-----0------0---------------------
A----------------------------------
E---------3-----3-2-0--------------


G          A        D         Bm
Pero no lo hagas si no lo sientes
G          A        Bm            D
Pero no lo hagas si aun no entiendes
Em               G        Em            A        D
No me escuches decir      todo lo que siento por ti

G-A-Bm-D-G-Bm-A

D             G          A      Bm
Siento en verdad, no me amas igual
D       G             Bm          A
Que más da, así es la vida en verdad

...CON UNA GUITARRA PUEDES TOCAR EL INTRO MIENTRAS
QUE CON OTRA TOCAS LOS ACORDES SUENA EXELENTE....

D          G           A        Bm
Piensas en mí, como lo hago por ti
D          G            Bm       A
Lloras sin mí, no me puedes mentir

G          A        D         Bm
Pero no lo hagas si no lo sientes
G          A        Bm            D
Pero no lo hagas si aun no entiendes
Em               G        Em            A        D
No me escuches decir      todo lo que siento por ti

D-G-A-Bm-D-G-Bm-A (X2)

G          A        D         Bm
Pero no lo hagas si no lo sientes
G          A        Bm            D
Pero no lo hagas si aun no entiendes

Em                G         Em       G
No me escuches decir

Em               G        Em            A
No me escuches decir      todo lo que siento por ti

D-G-A-Bm-D-G-Bm-A

ESPERO QUE LES GUSTE ....
HAY SE LAS DEJO....
....VOTEN....
Calificar esta versión:
Aviso: Este fichero es trabajo propio de su transcriptor y representa su interpretación personal de la canción. El material contenido en esta página es para exclusivo uso privado, por lo que se prohibe su reproducción o retransmisión, así como su uso para fines comerciales.