Nubes Negras (solo), Los De Adentro (tablatura)

Autor: Stevens | 22401 visualizaciones

E||-------------------------------------------------------13--11
B||-12h13--13--13--12--10--13--12-------------------8--13-------
G||------------------------------12--9--5--7--9--7--------------
D||-------------------------------------------------------------
A||-------------------------------------------------------------
E||-------------------------------------------------------------

E||-------------11----9----7----5----3|
B||-13--11----------------------------|
G||---------11------9----7----5----3--|
D||-----------------------------------|
A||-----------------------------------|
E||-----------------------------------|

Comentarios del colaborador: espero que lo disfruten y se diviertan con esto si ahy un error porfevor de informarme al correo: sarocha-1991@hotmail.com

Calificar esta versión:
Aviso: Este fichero es trabajo propio de su transcriptor y representa su interpretación personal de la canción. El material contenido en esta página es para exclusivo uso privado, por lo que se prohibe su reproducción o retransmisión, así como su uso para fines comerciales.