No Mas Solo, Los De Adentro (tablatura)

Autor: JuanDaCh | 23556 visualizaciones

e|-------------7-----------|
D|---7-7-7-7/9---9-7h9p9-7-|
G|-9-----------------------|
D|-------------------------|
A|-------------------------|
E|-------------------------|

e|-------------------------------7-|
B|---4-5-7-5-4-------------4-7-4---|
G|-4-----------2-6-2-8b-6b---------|
D|---------------------------------|
A|---------------------------------|
E|---------------------------------|

e|--------------------------14-12-14-12h14-9-7-9-7----|
B|-----------------------14------------------------10-|
G|-9-8-------9-8-8/11-14------------------------------|
D|-----9-6-7------------------------------------------|
A|----------------------------------------------------|
E|----------------------------------------------------|

e|-------------------------------------|
D|-----------------7h9p7-7-------------|
G|-----------6-8-9---------9-8-6-------|
D|-----6-7-9---------------------9p1^0-|
A|-7-9---------------------------------|
E|-------------------------------------|
Calificar esta versión:
Aviso: Este fichero es trabajo propio de su transcriptor y representa su interpretación personal de la canción. El material contenido en esta página es para exclusivo uso privado, por lo que se prohibe su reproducción o retransmisión, así como su uso para fines comerciales.