Ya No Volveras, Los Daniels (tablatura)

Autor: a7xfoREVer | 32271 visualizaciones



Intro

e----------------------------------
b----------------------------------
g----------------------------------
d----7-9-10-9-10-9-10-9-7----------
A-10-----------------------10-9-7--
E----------------------------------

e----------------------------------
b----------------------------------
g----------------------------------
d----7-9-10-9-10-9-10-9-7----------
A-10-----------------------10-9----
E----------------------------------


e----------------------------------
b----------------------------------
g----------------------------------
d--------7-9-7-9-7-9-7-9-10-9-7----
A-9-10-----------------------------
E----------------------------------

e------------------------------------------------
b------------------------------------------------
g------------------------------------------------
d--7-9-10-9-7------------------------------------
A-------------10-9-10-9-7---7---7---7---7-------7--
E-------------------------9---7---7---7-----7-9----


Em
Aunque quiera dormir mas
                              Bm
traigo nauseas por verte al soñar
Am                Bm
                                Riff 1
Todo por quererte ver
                               A--9-8-7-6-5------5-7-
tiendo a recaer   Riff 1       E--7-6-5-4-3--5-7-----

Em
Hay trabajo por hacer
                         Cm
Quiero desprenderte de mi ser
G                  Bm
Lo que has sido para mi

ya no es para ti   Riff 1


C         Bm   Am
No pude darte,lo que querías de mi
C         Bm   Fm
Se que hoy se ha muerto la felicidad
C         Bm   Am
Quiero mirarte,darte un abrazo mas
C         Bm       G
Y aunque lo quiera,ya no volverás.
G         Bm
Ya no,ya nunca mas

SE REPITE INTRO

Em
Confundido en mi existir
                           Bm
Te odio,te amo,te quiero olvidar
Am                   Bm
Y aunque quiera regresar

Lo has dejado ya

Em                               Cm
!No quiero! !Se que! Ya no volverás
G            Bm
!Ya no puede ser! Quedamos atrás

C         Bm     Am
No pude darte,lo que querías de mi
C         Bm     Fm
Como lo dices ya no hay nada ya
C         Bm     Am
Quiero mirarte dar un respiro mas

C           Bm
Y aunque lo quiera
G             Dm
Ya no volverás,Ya nunca mas
G
Todo quedo atrás
Bm
Tengo que empezar.





Calificar esta versión:
Aviso: Este fichero es trabajo propio de su transcriptor y representa su interpretación personal de la canción. El material contenido en esta página es para exclusivo uso privado, por lo que se prohibe su reproducción o retransmisión, así como su uso para fines comerciales.