Al Más Allá, Los Daniels (tablatura)

Autor: Anónimo | 22457 visualizaciones



 *Aquí colaborando con otra canción del disco Mooddanza, a mí gusto
 es una de las mejores del disco, aquí se las dejó para que le rockeen
 un rato, saludos!!!.



Tengan en cuenta los vibratos (~) marcados en las tabs porque se
confunden con los guiones (-), se los marco en la nota que deben ir
y también arriba del hexagrama para que los puedan notar.

    ~            ~            ~
E|---------------------------------------------------------------|
A|---------------------------------------------------------------|
D|---------------------------------------------------------------|(X2)
G|---------------------------------------------------------------|
B|--------10-8---------10-8---------10-8-7-8-7-8-7-8-7-8-7-5-----|
e|-7~-8-7-------7~-8-7-------7~-8-7------------------------------|



Em
Esas noches que te encuentro por ahí
                                 B
paseándote con alguien frente a mí
                              Am
creyendo que llamaste mi atención
          G              B          Em
siento decir que ya no existes para mí.


Em
Por las tardes cuando pasas por aquí
                                  B
paseándote y de tu mano otro infeliz
                                    Am
volviéndose complice de tu oculto ardor
       G                   B           Em
pobre güey no sabe que lo dejarías por mí.


Am                        D
Te dejé un serio problema
                       G
mi rechazo es tu condena
                    E7
mira hacia otro lado
   Am                   D
y hoy cerramos este tema
                           G
tu vida ya no es mi problema
                    E7
mira hacia otro lado
Am          D           Em
puedes irte ya, al más allá.


    ~            ~            ~
E|---------------------------------------------------------------|
A|---------------------------------------------------------------|
D|---------------------------------------------------------------|(X2)
G|---------------------------------------------------------------|
B|--------10-8---------10-8---------10-8-7-8-7-8-7-8-7-8-7-5-----|
e|-7~-8-7-------7~-8-7-------7~-8-7------------------------------|


Em
Si supieras que mis pensamientos ya
                                B
ya le pertenecen a un buen corazón
                              Am
a alguien que me quiere como soy
        G            B          Em
y para mí a su lado tú no vales nada.


Am                        D
Te dejé un serio problema
                       G
mi rechazo es tu condena
                    E7
mira hacia otro lado
   Am                   D
y hoy cerramos este tema
                           G
tu vida ya no es mi problema
                    E7
mira hacia otro lado
Am          D           Em
puedes irte ya, al más allá.


Am                        D
Te dejé un serio problema
                       G
mi rechazo es tu condena
                    E7
mira hacia otro lado
   Am                   D
y hoy cerramos este tema
                           G
tu vida ya no es mi problema
                    E7
mira hacia otro lado
Am          D           Em
puedes irte ya, al más allá.



® Cualquier duda o comentario a mi correo.
® Rhadex.





Calificar esta versión:
Aviso: Este fichero es trabajo propio de su transcriptor y representa su interpretación personal de la canción. El material contenido en esta página es para exclusivo uso privado, por lo que se prohibe su reproducción o retransmisión, así como su uso para fines comerciales.