Crónica De Un Beso, Los Claxons (tablatura)

Autor: Anónimo | 26728 visualizaciones



Esta rola esta bien padre va dedicada con todo mi amor
para mi novia que la amo mucho; lidia-Mariposita;
sabes que aquí estoy hermosa, con cariño para tí:
se que recordarás que te la dedique cuando comenzamos a ser novios,
TE AMO.

Chavos disfrutenla, con esta tab y el tono musical canten la rola,
está padre, priemero escuchenla e interpretenla. ahi esta la letra
para que empiecen a cantar solo chequen donde entrar.

Capo en el segundo traste.

e|---------------------------------------------------------------|
B|---0-----------0-----------0-----------------------------------|
G|---0-----------0-----------0-------------------2/4---2--0------|
D|------0-----------2-----------2----------5-5/7-------------2---|
A|-2------2---2/3------3---2-------3----5/7----------------------|
E|---------------------------------------------------------------|

e|---------------------------------------------------------------|
B|---0-----------0-----------0-----------------------------------|
G|---0-----------0-----------0-----------------------------------|
D|------0-----------2-----------2--------------------------------|
A|-2------2---2/3------3---2-------3----5/7---5--2---------------|
E|---------------------------------------------------------------|


Déjame acercarme más
lo haré muy lento
nunca nadie lo sabrá que estamos aquí,
que nos vuela el tiempo.

Te juro nunca te arrepentirás
lo que somos en este momento
no debe quedarse,
ven, acércate y bésame
que esta vida se acaba
y es nuestra oportunidad ohhh no
solo sé luces tan espectacular
déjate llevar, como las olas del mar
llegan aquí, al lado de ti.

No puedo más si estas así,
por algo nos pusieron aquí
no puedo resistirme, mírate
no seria natural negarnos esto.

La marea sube más,
se ha mojado un poco tu espalda
aquí, dentro de este inmenso mar
te quiero besar, te quiero besar
solo se siente natural
deja que este mar
nos lleve de aquí, nos lleve de aquí





Calificar esta versión:
Aviso: Este fichero es trabajo propio de su transcriptor y representa su interpretación personal de la canción. El material contenido en esta página es para exclusivo uso privado, por lo que se prohibe su reproducción o retransmisión, así como su uso para fines comerciales.