Ahí Fue Cuando, Los Claxons (tablatura)

Autor: Anónimo | 25357 visualizaciones



Capo en 4 traste
(En FigG se tiene que oír la canción para saber donde va
el remate y donde no, como apoyo en las estrofas no se usa
el remate)
FigG1
----------------------------------
-----3-------------3--------------
--------0----0-------0----0-------
-----------0------------0---------
-------------------------------2--
--3-------------2-----------------

--------------------------------------------
--3---------------3-------------------------
----0----0----------0----0------------------
------0---------------0-----0/2-------------
--------------0--------------------0/2------
-----------------------------------------3--

FigG2
---------------------------------
-----3-------------3-------------
--------0----0-------0----0------
-----------0------------0--------
-------------------------------2-
--3-------------2----------------

----------------------------
--3---------------3---------
----0----0----------0----0--
------0---------------0-----
--------------0-------------
----------------------------

Intro FigG1 x2

FigG2
hoy, hoy, un tintinear dentro de mi,
FigG2
como copa rota en miles de pedazos.
FigG2
esparciendose llegando a todos los rincones
FigG2
de mi de mi de mi

C        D                    Am
identifique y recorde que asi es
                G
cuando este corazon se rompe
C           D
y trate tambien de recordar
Am               G
que hacer para juntar sus partes
D                         C
ponerlo de regreso en su lugar
D                               FigG1 x2
y ahi fue cuando comenze a llorar..

FigG2
percibi en camara lenta
FigG2
como pasaba la avalancha
FigG2
llevandose todo y dejandome a mi en el lodo
FigG2
sin alguien para levantarme

C       D                     Am
identifique y recorde que asi es
                G
cuando este corazon se rompe
C          D
Y trate tambien de recordar
Am               G
que hacer para juntar sus partes
D                         C
ponerlo de regreso en su lugar
D                              FigG1 x2
y ahi fue cuando comenze a llorar..

C       D                     Am
identifique y recorde que asi es
                G
cuando este corazon se rompe
C                                D
Y utilice todas mis fuerzas para recordar
Am               G
que hacer para juntar sus partes
D                         C
ponerlo de regreso en su lugar
D                                                FigG1x2
no lo pude lograr .. tenia mucho tiempo sin llorar..





Calificar esta versión:
Aviso: Este fichero es trabajo propio de su transcriptor y representa su interpretación personal de la canción. El material contenido en esta página es para exclusivo uso privado, por lo que se prohibe su reproducción o retransmisión, así como su uso para fines comerciales.