Ahí Estaré, Los Claxons (tablatura)

Autor: Anónimo | 31223 visualizaciones



¿Qué tal? Como ya se había solicitado mucho y ya sacaron video oficial,
les paso los acordes y tabs de Ahí Estaré,
yo subí mi video a YouTube en cover: http://www.youtube.com/watch?v=mUA0XPoLwUc
La canción está muy fácil y también lo expliqué de la mejor manera.
Si tienen alguna duda síganme en Twitter: @HugoMiztli
o mándenme un correo hugomiztli@hotmail.com
OJO: Estoy haciendo la canción en Guitar Pro,
si quieren saber cuando la sube contáctenme
a unos de los dos medios que les pasó.
YO MISMO SAQUÉ LA CANCIÓN Y TODO LO QUE LA INCLUYA.
Disfruten la buena música.



ACORDES USADOS
     LA          SImenor     FA#menor      MI       RE
E|-----------------2--------------2------------------------2----
B|---2-------------3--------------2------------------------3----
G|---2-------------4--------------2-------------1----------2----
D|---2-------------4--------------4-------------2----------0----
A|---0-------------2--------------4-------------2---------------
E|--------------------------------2-------------0---------------



RIFF 1
         A (quinta de LA)
E|--x-x---x---x---x---x---x-x-x-x---
B|--5-5---5---5---5---5---5-5-5-5---
G|--6-6---6---6---6---6---7-7-7-7---
D|--7-7---7---7---7---7---7-7-7-7---
A|--7-7---7---7---7---7---7-7-7-7---
E|--x-x---x---x---x---x---x-x-x-x---

RIFF 2

E|--x-x---x---x---x---x---x-x-x-x---
B|--5-5---5---5---5---5---5-5-5-5---
G|--6-6---6---6---6---6---6-6-6-6---
D|--7-7---7---7---7---7---7-7-7-7---
A|--7-7---7---7---7---7---7-7-7-7---
E|--x-x---x---x---x---x---x-x-x-x---



INTRO  (Guitarra 1)
E|------------------------------------------------
B|------------------------------------------------
G|--9-9-9-------------------9-9-9-9-9-------------
D|----------11-9-11---------------------11-9-11---
A|------------------------------------------------
E|------------------------------------------------

Intro (Guitarra 2) (Lo toca todo en acordes)
     LA          SImenor       FA#menor         MI
E|-----------------2--------------2------------------
B|---2-------------3--------------2------------------
G|---2-------------4--------------2-------------1----
D|---2-------------4--------------4-------------2----
A|---0-------------2--------------4-------------2----
E|--------------------------------2-------------0----


Riff 1
Cada calle que camines
Riff 2
cada de lo que critiques
Riff 1
cada pelicula que mires
Riff 2
ahí estaré


Riff 1
En las noches cuando bailas
Riff 2
cuando ries y me encantas
Riff 1
debajo de tu cama
Riff2
ahí estaré


  LA                        SIm
Ahí estaré buscando la oportunidad
                 FA#m
un descuido de tu mente
              MI
para poder colarme


RIFF 1
En tus vueltas a la compra
RIFF 2
en los discos que oigas
RIFF 1
en tus versos y en tus prosas
RIFF 2
ahí estaré


RIFF 1
En el olor de la mañana
RIFF 2
en tus viajes y playa
RIFF 1
en tus ojos y mirada
RIFF 1
ahí estaré


  LA                        SIm
Ahí estaré buscando la oportunidad
                 FA#m
un descuido de tu mente
              MI
para poder colarme


  LA                        SIm
Ahí estaré buscando la oportunidad
                 FA#m
un descuido de tu mente
              MI
para poder colarme


SIm                                RE
  Cada vez que alguien te quiera besar
                            FA#m
en tus noches de obscuridad

en la luz o en la ciudad
SIm
 detrás de la tormenta
       RE
cuando menos te des cuenta
FA#m                             MI
 esperándote que esto apenas comienza


                     FA#m E
Ahí estaré, ahí estaré

E|-----------------------------------------------------------------------------
B|-----------5-----------------7----------------10------10--------------10-----
G|-----6--------6--------7--------7---------11------11------11------11------9--
D|--7-----7--------7--9-----9--------9--11----------------------11-------------
A|-----------------------------------------------------------------------------
E|-----------------------------------------------------------------------------
(El truco en esta parte es dejar sonar las notas y tocar todo seguido)


(En el último coro toca lo del intro la primera guitarra
y acompañan los acordes)

  LA                        SIm
Ahí estaré buscando la oportunidad
                 FA#m
un descuido de tu mente
              MI
para poder colarme

  LA                        SIm
Ahí estaré buscando la oportunidad
                 FA#m
un descuido de tu mente
              MI
para poder colarme


RIFF 1 y RIFF 2
Ahí estaré





Calificar esta versión:
Aviso: Este fichero es trabajo propio de su transcriptor y representa su interpretación personal de la canción. El material contenido en esta página es para exclusivo uso privado, por lo que se prohibe su reproducción o retransmisión, así como su uso para fines comerciales.