Como Dejar De Amarte, Los Charros De Lumaco (tablatura)

Autor: elxraulx | 41109 visualizaciones

1--5-5-2-3-5-7-7-5-5-3-2---
 2--7-7-3-5-7-8-8-7-7-5-3---
 3--------------------------
 4--------------------------
 5--------------------------
 6--------------------------


 1--5-5-2-3-5-7-7-5-5-2-3---
 2--7-7-3-5-7-8-8-7-7-3-5---
 3--------------------------
 4--------------------------
 5--------------------------
 6--------------------------

 1--7-7-5-7-9--10-10-9--9--7
 2--8-8-7-8-10-12-12-10-10-8 
 3--------------------------
 4--------------------------
 5--------------------------
 6--------------------------

 1--10-10-9-10-12-14-14-12-12-10
 2------------------------------
 3------------------------------
 4------------------------------
 5------------------------------
 6------------------------------

 1--12-12-10-10-7-9-9-7---------
 2----------------------10-8-7--
 3------------------------------
 4------------------------------
 5------------------------------
 6------------------------------



 me falta un poco pero ojalas le sirva

 gracias y comenten
 se falta algo me lo dicen
Calificar esta versión:
Aviso: Este fichero es trabajo propio de su transcriptor y representa su interpretación personal de la canción. El material contenido en esta página es para exclusivo uso privado, por lo que se prohibe su reproducción o retransmisión, así como su uso para fines comerciales.