Espérame, Los Changos (tablatura)

Autor: Anónimo | 36206 visualizaciones



INTRO:

E|-------------0----------------0----------------0-----|
B|--3-------3-----3--1-------1-----1--0-------0-----0--|
G|-------0----------------0----------------0-----------| Varias veces
D|-----------------------------------------------------|
A|-----------------------------------------------------|
E|--3----------------3----------------3----------------|

E|------------0--3-----------3--5-----------5--7---------7---5--------5-|
B|------0-1-3-------3------3-------5------5------7------7------5-----5--|
G|--0-2----------------0--------------0------------0-------------0------|
D|----0-----------------------------------------------------------------|
A|----------------------------------------------------------------------|
E|--3------------3-------3------5-------5------7------7------5-----5----|


E|--12p10-----12p10----12p10---------------------------12--12-10-12-10--|
B|--------12--------12-------12-10h12p10-8------------------------------|
G|------------------------------------------7/12-12-12------------------|
D|----------------------------------------------------------------------|
A|----------------------------------------------------------------------|
E|----------------------------------------------------------------------|

E|--0-8-7-5-3/-0-9-10-12-10----------------10---8-------8-10-12-14-15---|
B|------------------------------10----10----------8---8-----------------|
G|--0-7-7-5-3----9-10-12-11--11----11----11---------9------9-12-14-14---|
D|----------------------------------------------------------------------|
A|----------------------------------------------10----------------------|
E|----------------------------------------------------------------------|

E|---0-10-8-7---------------------------------------------------3-------|
B|-------------------------------0-------1-3-3/5/3-1--------3-----3-----|
G|---7----------4-5-4-2-0--5-4-2-------0------------------0---0---------|
D|-----------------------------------2------------------0---------------|
A|---------------------------------3------------------------------------|
E|----------------------------------------------------3-----------------|


G            B7         Em
Me voy amor no esperes mas
       C        A7         D
mi corazón se tiene que marchar
Am            B7       Em
me llevare hasta la penumbra de tu piel
E            Am
para juntos amanecer
G        B7     Em
mañana yo donde andaré
            C             D7          G
Quien sabe amor en que pueblito moriré

me voy amor espérame
diosito me ha pedido antes de ayer
que te devuelva en el perfume del ciprés
aquellas noches q yo te robe
mañana yo donde andaré
pero te juro amor que un día volveré

Estribillo:

Em
No, no llores por favor
C                A7       D
el agrio no te vayas quédate
 Am            B7      Em
por que será q se estremece hasta la piel
E                           Am
será que te amo como nunca ame
G         B7       Em
pero amanece ya lo ves
        C                 D7      G
me voy amor te dejo un beso espérame

Repite intro

me iré alejando de tu amor
de tus ojitos plenilunio de color
quien te dirá q eras tan linda como ayer
y q me duele dejarte
quien cantara nuestra canción
esa q cuenta de los niños y de dios


que haré con tanta soledad
con tanta luna derramada por el mar
donde andarás enamorada del jazmín
q se hace lluvia lejos de aquí
mis ojos sueñan con vivir
en el plumaje de tu alma colibrí


Estribillo:


FINAL:
E|---------------------------------------------------|
B|------0-3h5p3-1-3/4/3---3/4/3---3/4/3-5------------|
G|--0-2-----------------4-------4--------------------|
D|----0----------------------------------------------|
A|---------------------------------------------------|
E|--3------------------------------------------------|


PA’ LA BRUJA :D





Calificar esta versión:
Aviso: Este fichero es trabajo propio de su transcriptor y representa su interpretación personal de la canción. El material contenido en esta página es para exclusivo uso privado, por lo que se prohibe su reproducción o retransmisión, así como su uso para fines comerciales.