Me Gusta Jujuy Cuando Llueve, Los Chalchaleros (tablatura)

Autor: Anónimo | 36540 visualizaciones

Aca les dejo una zamba muy bonita que a mi considerar
es el himno de los jujeños.


PRIMERA


   cV           CIII         CI
-|-----------|------------|-----------|----------0|---------|
-|------6----|------5-----|------3----|--------2--|---------|
-|----7---7--|----5---5---|----3---3--|------0----|---------|
-|-----------|------------|-----------|----2------|---------|
-|--5--------|--3---------|--1--------|--0--------|--2-3-4--|
-|-----------|------------|-----------|-----------|---------|

       CIII
-|-----------3--5-6-5-3-|--------0--1-3-5-|
-|---------3------------|------3----3-5-6-|
-|-------3--------------|----2------------|
-|----------------------|--0--------------|
-|----------------------|-----------------|
-|--0**3----------------|-----------------|

-|----------------------|-----------------|
-|-------6----5----3--2-|-------5--3------|
-|----------------------|-----------------|
-|--2**7----5----3----2-|--2**5----3------|
-|----------------------|-----------------|
-|----------------------|-----------------|



                      RE7      SOLm
Me gusta Jujuy, mi Jujuy cuando llueve
    DO                     FA 
y dejar que el recuerdo me lleve,
      LA7               SIb 
y por Yala perderme abrazado al amor
         SOLm           MI7 LA7
mojadito de agua hasta el alma.
(Bis)
      LA7               SIb 
y por Yala perderme abrazado al amor
         SOLm           REm
mojadito de agua hasta el alma.


Me gusta Jujuy, mi Jujuy cuando aclara
y en los charcos mirarme la cara,
o mirar los gorriones al cielo volar
desde el campanario hasta el alba.


ESTRIBILLO

RE7               SOLm
   Es una fruta madura Jujuy
MI7                  LA7
   es un jazmín encendido
                       SIb 
o tal vez un rayito de luna o de sol
         SOLm    MI7 LA7
una campanita de pla-ta.
                         SIb 
A Jujuy esta zamba le quiero cantar
           SOLm            LA7 REm
me gusta Jujuy con toda el al--ma.



SEGUNDA

REPITE INTRO


Me gusta Jujuy, mi Jujuy por las tardes
y sentirme color del paisaje,
o llegarme a la viña y un vino tomar
antes que la tarde se apague.


Me gusta Jujuy mi Jujuy por las noches
con la luna alumbrando el camino,
y perdirle a un amigo que venga a cantar
una serenata conmigo.


REPITE ESTRIBILLO


Les hago una recomendación, si uno es bien fan de los chalchas
y quiere sacar el tema tal cual la grabacion,tendrá que
escucharla varias veces hasta lograrlo.
Lo que yo les doy aqui es una base de la que ustedes podrán
darle su propio estilo y de alguna manera rendir homenaje
a los inolvidables Chalchaleros.
Otro punto MUY IMPORTANTE con respecto a la letra de la zamba,
es que muchos intérpretes, inclusive los más famosos, confunden
y cambian una frase del estribillo, quitándole a la letra
su hilo poético, su hermosura, y hasta su lógica.Me refiero a
la frase "...o tal vez un rayito de luna o de sol...",
donde se cambia la palabra "rayito" por "ramito".
Esto es sin duda incoherente y le quita totalmente
la dulzura al poema.Tengan en cuenta mucho esto,
por que a veces a uno, siendo jujeño, le duele escuchar
la letra mal cantada de esta zamba que nos representa
a nivel nacional y, porque no, a nivel internacional.
Calificar esta versión:
Aviso: Este fichero es trabajo propio de su transcriptor y representa su interpretación personal de la canción. El material contenido en esta página es para exclusivo uso privado, por lo que se prohibe su reproducción o retransmisión, así como su uso para fines comerciales.