Chacarera De Un Triste, Los Chalchaleros (tablatura)

Autor: Anónimo | 27391 visualizaciones



Capo en el 2º traste

Intro:
----3--5--9---7--5--4-/----/--12-12-12-11-9--7-5-4-------------
----3--7--10--9--7--6-/----/--14-14-14-12-10-9-7-6-------------
--------------------- /-X2-/-----------------------------------
----------------------/----/-----------------------------------
----------------------/----/-----------------------------------
----------------------/----/-----------------------------------

----------------------/-----/--12-12-12-11-9--7-5-4------------
----------------------/-----/--14-14-14-12-10-9-7-6------------
----------------------/-X2--/-----------------------------------
------4--7--6--4-3--4-/-----/-----------------------------------
----------------------/-----/-----------------------------------
----2-----------------/-----/------------------------------------


SI7                MIm
Para que quiero vivir
SOL
Con el corazón deshecho
LA                 SOL
Para que quiero la vida
    SI7                   MIm
después de lo que me has hecho.

Yo te di mi corazón
vos el tuyo voz me entregaste
con engaño y así el mío
prenda lo despedazaste.

Ay porqué fuiste tan cruel
si tu cariño esperaba
porqué jugaste con migo
prenda si te idolatraba.

Yo del mundo olvide
desengaños y amarguras
pero lo que vos me hiciste
prenda mi alma perdura.

Segunda

Seguí guitarra seguí
seguí como yo llorando
compañera hasta la muerte
seguí mi alma consolando.

No hay consuelo ya lo sé
para que voy a buscarlo
tan deshecha tengo el alma
que inútil será lograrlo.

Cantando me pasaré
muy triste esta chacarera
pueda ser que vos te acuerdes
en el momento que muera.

Seguí guitarra seguí
prenda por lo que me hiciste
rasgueando toda la noche
La chacarera del triste





Calificar esta versión:
Aviso: Este fichero es trabajo propio de su transcriptor y representa su interpretación personal de la canción. El material contenido en esta página es para exclusivo uso privado, por lo que se prohibe su reproducción o retransmisión, así como su uso para fines comerciales.