Alma De Nogal, Los Chalchaleros (tablatura)

Autor: Anónimo | 37714 visualizaciones

(PRIMERA)NTRO

E------------5--------------------2-----0------------------------
A-5-----------7---------2---------4------2-----------------------
D--7-----------7---------4--------4-------2----------------------
G---7-----------6---------4-------2--------1---------------------
B----7-----------5----5----3--------2-------0---3-2-2-3----------
e-----5-7-5-------5-3-------2-3-2---2--------0--2-0-0-2-4-5------

E----------------------------------------------------------------
A----------------------------------------------------------------
D----------------------------------------------------------------
G----------------------------------------------------------------
B--3-5-7-8-10-12--14-12-8/10--12--7---8---10---12-----14-15-17---
e--2-3-5-7-9--10--12-10-7/9---10----5---7----9----10--12-14-15---

E-------------------------------------------||
A--------------------0-1-2-3-4/5------------||
D--------------------------------0-1-2-3-4--||
G-14-12-14-12----11-------------------------||
B-------------------------------------------||
e-14-12-14----12-10-------------------------||

Al F#m fijense de acerlo en el 9 traste en la 5ta cuerda
por lo menos en la version que tengo lo hace ahi

D              F#m
Viene mi canto solo
Bm7         E7       A7
por una senda dormida
      D        B7         Em
la guitarra: madera hecha vida
Gm7        D       E7       A7
Vientre de zambas, manos curtidas
      D        B7         Em
la guitarra: madera hecha vida
Gm7        D       A7          D
vientre de zambas, manos curtidas

Grillo de amanecidas
que se mezclo en el gauchaje
compañera, clarin de partida
sonora lanza que dio coraje
compañera, clarin de partida
sonora lanza que dio coraje

E-----------||
A-------4-2-||
D-0H2P0-----||
G-----------||
B-----------||
e-----------||

   F#7            Bm7
La tierra borda dejando
   E7            A7
al aire su cauce arisco
F#m                 G
carne de monte, sombrio temblar
Gm            A7
grito de bagualero
     D         B7        Em
amanecer de torcaza y jilguero
 Gm         D             A7  D
al pie del silencio de la no che

(SEGUNDA)INTRO

Hembra que canta y llora
beso que tiembla en la sombra
regresara, virtiendo en el alba
luz de las viñas, tiernas vidalas
regresara, virtiendo en el alba
luz de las viñas, tiernas vidalas

Sangra el nogal del monte
fruto, savia envejecida
germinara, dejando la vida
flor de su seno, rama que vibra
germinara, dejando la vida
flor de su seno, rama que vibra

E-----------||
A-------4-2-||
D-0H2P0-----||
G-----------||
B-----------||
e-----------||

 F#7            Bm7
La tierra borda dejando
   E7            A7
al aire su cauce arisco
F#m                 G
carne de monte, sombrio temblar
Gm            A7
grito de bagualero
     D         B7        Em
amanecer de torcaza y jilguero
 Gm         D             A7  D
al pie del silencio de la no che

POR CUALQUIER DUDA PANCHOTE_14@HOTMAIL.COM
ME CAGA DE GUSTO ESTE TEMA Y NO ME GUSTAN LOS CHALCHALEROS
JAJAJA SALUDOS
Aviso: Este fichero es trabajo propio de su transcriptor y representa su interpretación personal de la canción. El material contenido en esta página es para exclusivo uso privado, por lo que se prohibe su reproducción o retransmisión, así como su uso para fines comerciales.