No Me Despaches Asi, Los Caballeros De La Quema (tablatura)

Autor: Anónimo | 36795 visualizaciones

INTRO:
 LA                           LA
|----------------------------|----------------------------|
|-------------12-14-12-14-17-|----------------------------|
|----12-9--------------------|----12-9-----12-14-12-11----|  X2
|---------11-----------------|---------11--------------14-|
|-12-------------------------|-12-------------------------|
|----------------------------|----------------------------|

 VERSOS:

LA 
Noche espesa la de anoche y van cuarenta y tres.
                         fa#          MI
No kme gana nadie en esto de perder y perder.
LA
pierdo mañas pierdo el pelo,

pierdo al metegol,
                           fa#         MI
solo frente al arco me enredé denuevo los pies.

Por eso...


re               LA
No me despaches así.
FA               MI
No me despaches así.


 INTERLUDIO:
 LA                           LA
|----------------------------|----------------------------|
|-------------12-14-12-14-17-|--- 14----------------------|
|----12-9--------------------|-------12----12-14-12-11----|  X 2
|---------11-----------------|-11-------14-------------14-|
|-12-------------------------|----------------------------|
|----------------------------|----------------------------|

Hace cuatro vidas que no soy lo que seré
y tengo una oferta del diablo por las próximas tres.
Juro lo injurable cuando el vino se acabó.
Viajo de colado en el furgón de mi última fé.
Por eso...
No me despaches así.
No me despaches así.

            DO                 FA
Hoy que no queda un gramo de piedad,
              re  MI       FA  
hoy que nos chumba la soledad,
           SOL              FA
llevame al arrabal de tus caderas
               SOL
que estoy tan flaco de rodar y rodar y rodar...


FA               DO
No me despaches así.
FA               DO
No me despaches así.
FA               DO
No me despaches así.

FA       SOL     
No me despaches
FA       SOL
No me despaches
FA       SOL      DO
No me despaches así.


 DEDICADO A VALERIA...  (Ojalá que aprenda a ser más asesino de mis sueños, para no soñarte...)

Fuente original: LaCuerda
Colaborador original: Emiliano [pantriste19@hotmail.com]
Calificar esta versión:
Aviso: Este fichero es trabajo propio de su transcriptor y representa su interpretación personal de la canción. El material contenido en esta página es para exclusivo uso privado, por lo que se prohibe su reproducción o retransmisión, así como su uso para fines comerciales.