Mal, Los Caballeros De La Quema (acordes)

Autor: Anónimo | 15360 visualizaciones

+ Tablaturas de la Vanguardia del Rock          +
+ http://www.geocities.com/BourbonStreet/6195/  +
+++++++++++++++++++++++++++++++++++++++++++++++++

INTRO 
 D5     C#5    B5     A5 
|-----0---------------|---------------------------------------------------------
|-----3---------------|---------------------------------------------------------
|-----0---------------|---------------------------------------------------------
|-----2---------------|---------------------------------------------------------
|-----3--3p2p0--------|---------------------------------------------------------
|--3------------3--3--|---------------------------------------------------------

D5     C#5    B5     A5


C9	    G 		    	
No, no me mires mas
C9			G
perdimos todo lo que habia
no lo busques mas
estamos rotos para intentar.

D5     C#5    B5     A5


Me estoy hundiendo como un tronco
y siento tan viejos los pies
ya se que de algo hay que morir
pero por que apretar tanto el nudo?

D5-C#5-B5-A5-C9
alastado y mal
     G
enterrandote
C9
mal
       G
lejos tuyo y mal
C9
mal
     G
sangrandote
D5-C#5-B5-A5     C9
con tu espina y mal
     G
perdiendote
C9          G 
mal sin tus huellas mal
C9
mal
	G
aplastandome
D5-C#5-B5-A5	     G
con tu espina y mal

ACORDES



   C9     G      D5     C#5    B5     A5                                        
|---0------3------------------------------|-------------------------------------
|---3------0------------------------------|-------------------------------------
|---0------0------7------6------4------2--|-------------------------------------
|---2------0------7------6------4------2--|-------------------------------------
|---3------2------5------4------2------0--|-------------------------------------
|----------3------------------------------|-------------------------------------

Fuente original: LaCuerda
Colaborador original: Alejandro Mauro [amauro@tatu.cnba.uba.ar]
Calificar esta versión:
Aviso: Este fichero es trabajo propio de su transcriptor y representa su interpretación personal de la canción. El material contenido en esta página es para exclusivo uso privado, por lo que se prohibe su reproducción o retransmisión, así como su uso para fines comerciales.